999
DXF file: st-gns36.dxf
999
Pro/ENGINEER 2011310 by Parametric Technology Corporation
  0
SECTION
  2
HEADER
  9
$ACADVER
  1
AC1018
  9
$DWGCODEPAGE
  3
ANSI_1252
  9
$EXTMAX
 10
210.0
 20
297.0
 30
0.0
  9
$EXTMIN
 10
0.0
 20
0.0
 30
0.0
  9
$LIMMIN
 10
0.0
 20
0.0
  9
$LIMMAX
 10
210.0
 20
297.0
  9
$VIEWCTR
 10
105.0
 20
148.5
  9
$VIEWSIZE
 40
297.0
  9
$CLAYER
  8
0
  9
$LTSCALE
 40
19.36
  9
$CELTYPE
  6
BYLAYER
  9
$DIMSCALE
 40
1.0
  9
$DIMASZ
 40
3.5
  9
$DIMEXO
 40
2.2
  9
$DIMDLI
 40
13.376
  9
$DIMEXE
 40
6.336
  9
$DIMCEN
 40
3.168
  9
$DIMLFAC
 40
1.0
  9
$DIMBLK
  1
_FILLED
  9
$DIMTXT
 40
3.5
  9
$DIMTOL
 70
1
  9
$DIMLIM
 70
0
  9
$DIMTFAC
 40
1.0
  9
$DIMTP
 40
0.005
  9
$DIMTM
 40
0.005
  9
$PDMODE
 70
3
  9
$PDSIZE
 40
0.3125
  9
$HANDSEED
  5
65C
  9
$TILEMODE
 70
1
  9
$MEASUREMENT
 70
1
  9
$INSUNITS
 70
4
  0
ENDSEC
  0
SECTION
  2
CLASSES
  0
CLASS
  1
ACDBDICTIONARYWDFLT
  2
AcDbDictionaryWithDefault
  3
AutoCAD 2000
 90
0
 91
1
280
0
281
0
  0
CLASS
  1
ACDBPLACEHOLDER
  2
AcDbPlaceHolder
  3
AutoCAD 2000
 90
0
 91
1
280
0
281
0
  0
CLASS
  1
LAYOUT
  2
AcDbLayout
  3
AutoCAD 2000
 90
0
 91
0
280
0
281
0
  0
CLASS
  1
TABLESTYLE
  2
AcDbTableStyle
  3
ObjectDBX Classes
 90
2047
 91
1
280
0
281
0
  0
CLASS
  1
ACAD_TABLE
  2
AcDbTable
  3
ObjectDBX Classes
 90
1025
 91
1
280
0
281
1
  0
ENDSEC
  0
SECTION
  2
TABLES
  0
TABLE
  2
VPORT
  5
8
100
AcDbSymbolTable
 70
2
  0
VPORT
  5
1F4
100
AcDbSymbolTableRecord
100
AcDbViewportTableRecord
  2
*ACTIVE
 70
0
 10
0.0
 20
0.0
 11
1.0
 21
1.0
 12
105.0
 22
148.5
 13
0.0
 23
0.0
 14
1.0
 24
1.0
 15
0.0
 25
0.0
 16
0.0
 26
0.0
 36
1.0
 17
0.0
 27
0.0
 37
0.0
 40
297.0
 41
0.7070707071
 42
50.0
 43
0.0
 44
0.0
 50
0.0
 51
0.0
 71
0
 72
100
 73
1
 74
1
 75
0
 76
0
 77
0
 78
0
  0
ENDTAB
  0
TABLE
  2
LTYPE
  5
5
100
AcDbSymbolTable
 70
6
  0
LTYPE
  5
14
100
AcDbSymbolTableRecord
100
AcDbLinetypeTableRecord
  2
BYBLOCK
 70
0
  3

 72
65
 73
0
 40
0.0
  0
LTYPE
  5
15
100
AcDbSymbolTableRecord
100
AcDbLinetypeTableRecord
  2
BYLAYER
 70
0
  3

 72
65
 73
0
 40
0.0
  0
LTYPE
  5
16
100
AcDbSymbolTableRecord
100
AcDbLinetypeTableRecord
  2
CONTINUOUS
 70
64
  3
Solid line
 72
65
 73
0
 40
0.0
  0
LTYPE
  5
1F5
100
AcDbSymbolTableRecord
100
AcDbLinetypeTableRecord
  2
CENTER
 70
64
  3
____ _ ____ _ ____ _ ____ _ ____ _ ____ _ ____
 72
65
 73
4
 40
0.6
 49
0.375
 74
0
 49
-0.075
 74
0
 49
0.075
 74
0
 49
-0.075
 74
0
  0
LTYPE
  5
1F6
100
AcDbSymbolTableRecord
100
AcDbLinetypeTableRecord
  2
HIDDEN
 70
64
  3
- - - - - - - - - - - - - - - - - - - -
 72
65
 73
2
 40
0.2
 49
0.1
 74
0
 49
-0.1
 74
0
  0
LTYPE
  5
1F7
100
AcDbSymbolTableRecord
100
AcDbLinetypeTableRecord
  2
PHANTOM
 70
64
  3
_____ _ _ _____ _ _ _____ _ _ _____
 72
65
 73
6
 40
0.8
 49
0.45
 74
0
 49
-0.05
 74
0
 49
0.1
 74
0
 49
-0.05
 74
0
 49
0.1
 74
0
 49
-0.05
 74
0
  0
LTYPE
  5
1F8
100
AcDbSymbolTableRecord
100
AcDbLinetypeTableRecord
  2
DOT
 70
64
  3
. . . . . . . . . . . . . . . . . . . .
 72
65
 73
2
 40
0.2
 49
0.1
 74
0
 49
-0.1
 74
0
  0
LTYPE
  5
1F9
100
AcDbSymbolTableRecord
100
AcDbLinetypeTableRecord
  2
DASHED
 70
64
  3
- - - - - - - - - - - - - - - - - - - -
 72
65
 73
2
 40
0.2
 49
0.1
 74
0
 49
-0.1
 74
0
  0
ENDTAB
  0
TABLE
  2
LAYER
  5
2
100
AcDbSymbolTable
 70
36
  0
LAYER
  5
10
100
AcDbSymbolTableRecord
100
AcDbLayerTableRecord
  2
0
 70
0
 62
7
  6
CONTINUOUS
370
-3
390
F
  0
LAYER
  5
1FA
100
AcDbSymbolTableRecord
100
AcDbLayerTableRecord
  2
DEFAULT_1
 70
0
 62
7
  6
CENTER
370
-3
390
F
  0
LAYER
  5
1FB
100
AcDbSymbolTableRecord
100
AcDbLayerTableRecord
  2
DEFAULT_2
 70
0
 62
8
  6
HIDDEN
370
-3
390
F
  0
LAYER
  5
1FC
100
AcDbSymbolTableRecord
100
AcDbLayerTableRecord
  2
DEFAULT_3
 70
0
 62
7
  6
PHANTOM
370
-3
390
F
  0
LAYER
  5
1FD
100
AcDbSymbolTableRecord
100
AcDbLayerTableRecord
  2
010
 70
0
 62
7
  6
CONTINUOUS
370
-3
390
F
  0
LAYER
  5
1FE
100
AcDbSymbolTableRecord
100
AcDbLayerTableRecord
  2
025
 70
0
 62
7
  6
CONTINUOUS
370
-3
390
F
  0
LAYER
  5
1FF
100
AcDbSymbolTableRecord
100
AcDbLayerTableRecord
  2
035
 70
0
 62
7
  6
CONTINUOUS
370
-3
390
F
  0
LAYER
  5
200
100
AcDbSymbolTableRecord
100
AcDbLayerTableRecord
  2
05
 70
0
 62
7
  6
CONTINUOUS
370
-3
390
F
  0
LAYER
  5
201
100
AcDbSymbolTableRecord
100
AcDbLayerTableRecord
  2
07
 70
0
 62
7
  6
CONTINUOUS
370
-3
390
F
  0
LAYER
  5
202
100
AcDbSymbolTableRecord
100
AcDbLayerTableRecord
  2
DEFPOINTS
 70
0
 62
7
  6
CONTINUOUS
290
0
370
-3
390
F
  0
LAYER
  5
203
100
AcDbSymbolTableRecord
100
AcDbLayerTableRecord
  2
MITTE
 70
0
 62
7
  6
CONTINUOUS
370
-3
390
F
  0
LAYER
  5
204
100
AcDbSymbolTableRecord
100
AcDbLayerTableRecord
  2
RAHMEN
 70
0
 62
7
  6
CONTINUOUS
370
-3
390
F
  0
LAYER
  5
205
100
AcDbSymbolTableRecord
100
AcDbLayerTableRecord
  2
SCHRAFFIERT
 70
0
 62
7
  6
CONTINUOUS
370
-3
390
F
  0
LAYER
  5
206
100
AcDbSymbolTableRecord
100
AcDbLayerTableRecord
  2
ZEICHNUNGSBEMASSUNGEN
 70
0
 62
7
  6
CONTINUOUS
370
-3
390
F
  0
ENDTAB
  0
TABLE
  2
STYLE
  5
3
100
AcDbSymbolTable
 70
1
  0
STYLE
  5
11
100
AcDbSymbolTableRecord
100
AcDbTextStyleTableRecord
  2
STANDARD
 70
0
 40
0.0
 41
0.7
 50
0.0
 71
0
 42
0.2
  3
txt
  4

  0
STYLE
  5
207
100
AcDbSymbolTableRecord
100
AcDbTextStyleTableRecord
  2
TEXTSTYLE_1
 70
0
 40
0.0
 41
0.8
 50
0.0
 71
0
 42
0.2
  3
gdt
  4

  0
STYLE
  5
208
100
AcDbSymbolTableRecord
100
AcDbTextStyleTableRecord
  2
TEXTSTYLE_2
 70
0
 40
0.0
 41
0.8
 50
0.0
 71
0
 42
0.2
  3
txt
  4

  0
STYLE
  5
209
100
AcDbSymbolTableRecord
100
AcDbTextStyleTableRecord
  2
TEXTSTYLE_3
 70
0
 40
0.0
 41
1.0
 50
0.0
 71
0
 42
0.2
  3
triumb.ttf
  4

  0
STYLE
  5
20A
100
AcDbSymbolTableRecord
100
AcDbTextStyleTableRecord
  2
TEXTSTYLE_4
 70
0
 40
0.0
 41
0.7
 50
0.0
 71
0
 42
0.2
  3
gdt
  4

  0
ENDTAB
  0
TABLE
  2
VIEW
  5
6
100
AcDbSymbolTable
 70
0
  0
ENDTAB
  0
TABLE
  2
UCS
  5
7
100
AcDbSymbolTable
 70
0
  0
ENDTAB
  0
TABLE
  2
APPID
  5
9
100
AcDbSymbolTable
 70
1
  0
APPID
  5
20B
100
AcDbSymbolTableRecord
100
AcDbRegAppTableRecord
  2
ACAD
 70
0
  0
ENDTAB
  0
TABLE
  2
BLOCK_RECORD
  5
1
100
AcDbSymbolTable
 70
0
  0
BLOCK_RECORD
  5
20C
100
AcDbSymbolTableRecord
100
AcDbBlockTableRecord
  2
*Model_Space
  0
BLOCK_RECORD
  5
20D
100
AcDbSymbolTableRecord
100
AcDbBlockTableRecord
  2
*Paper_Space
  0
BLOCK_RECORD
  5
20E
100
AcDbSymbolTableRecord
100
AcDbBlockTableRecord
  2
SYMBOL_3_BL0
  0
BLOCK_RECORD
  5
20F
100
AcDbSymbolTableRecord
100
AcDbBlockTableRecord
  2
*T1
  0
ENDTAB
  0
TABLE
  2
DIMSTYLE
  5
A
100
AcDbSymbolTable
 70
1
100
AcDbDimStyleTable
 71
0
  0
DIMSTYLE
105
210
100
AcDbSymbolTableRecord
100
AcDbDimStyleTableRecord
  2
STANDARD
 70
0
  3

  4

 40
1.0
 41
3.5
 42
0.0625
 43
0.38
 44
0.18
 45
0.0
 46
0.0
 47
0.005
 48
0.005
140
3.5
141
0.09
142
0.0
143
25.4
144
1.0
145
0.0
146
1.0
147
0.09
 71
1.0
 72
0.0
 73
0
 74
0
 75
0
 76
0
 77
1
 78
8
170
0
171
2
172
0
173
0
174
0
175
0
176
0
177
0
178
5
270
2
271
3
272
3
273
2
274
2
275
0
280
0
281
0
282
0
283
1
284
8
285
0
286
0
287
3
288
0
340
11
  0
ENDTAB
  0
ENDSEC
  0
SECTION
  2
BLOCKS
  0
BLOCK
  5
20
100
AcDbEntity
  8
0
100
AcDbBlockBegin
  2
*Model_Space
 70
0
 10
0.0
 20
0.0
 30
0.0
  3
*Model_Space
  1

  0
ENDBLK
  5
21
100
AcDbEntity
  8
0
100
AcDbBlockEnd
  0
BLOCK
  5
1C
100
AcDbEntity
  8
0
100
AcDbBlockBegin
  2
*Paper_Space
 70
0
 10
0.0
 20
0.0
 30
0.0
  3
*Paper_Space
  1

  0
ENDBLK
  5
1D
100
AcDbEntity
  8
0
100
AcDbBlockEnd
  0
BLOCK
  5
211
100
AcDbEntity
  8
0
100
AcDbBlockBegin
 62
2
  6
CONTINUOUS
  2
SYMBOL_3_BL0
 70
64
 10
98.0245925022
 20
9.2066660654
  3
SYMBOL_3_BL0
  1

  0
LINE
  5
212
100
AcDbEntity
  8
0
100
AcDbLine
 62
2
  6
CONTINUOUS
 10
77.5544360471
 20
8.0329859648
 11
75.0539855722
 21
9.5420032339
  0
LINE
  5
213
100
AcDbEntity
  8
0
100
AcDbLine
 62
2
  6
CONTINUOUS
 10
75.2018073047
 20
10.3803457168
 11
77.7022587796
 21
8.8713284476
  0
LINE
  5
214
100
AcDbEntity
  8
0
100
AcDbLine
 62
2
  6
CONTINUOUS
 10
107.6509415813
 20
8.0329859648
 11
106.0530264731
 21
8.9551632959
  0
LINE
  5
215
100
AcDbEntity
  8
0
100
AcDbLine
 62
2
  6
CONTINUOUS
 10
97.3194792782
 20
8.8713284476
 11
98.5968389666
 21
8.0329859648
  0
LINE
  5
216
100
AcDbEntity
  8
0
100
AcDbLine
 62
2
  6
CONTINUOUS
 10
100.5250274771
 20
8.0329859648
 11
99.2476677888
 21
8.8713284476
  0
LINE
  5
217
100
AcDbEntity
  8
0
100
AcDbLine
 62
2
  6
CONTINUOUS
 10
107.8554912111
 20
9.2904996891
 11
109.7467977884
 21
8.0329859648
  0
LINE
  5
218
100
AcDbEntity
  8
0
100
AcDbLine
 62
2
  6
CONTINUOUS
 10
115.1413990258
 20
10.1843850714
 11
115.471200429
 21
8.8651804588
  0
LINE
  5
219
100
AcDbEntity
  8
0
100
AcDbLine
 62
2
  6
CONTINUOUS
 10
115.5621982643
 20
8.5011891175
 11
115.6792490525
 21
8.0329859648
  0
LINE
  5
21A
100
AcDbEntity
  8
0
100
AcDbLine
 62
2
  6
CONTINUOUS
 10
116.611688365
 20
10.3803457168
 11
117.198528303
 21
8.0329859648
  0
LINE
  5
21B
100
AcDbEntity
  8
0
100
AcDbLine
 62
2
  6
CONTINUOUS
 10
73.1950539363
 20
8.0329859648
 11
73.6089561873
 21
10.3803457168
  0
LINE
  5
21C
100
AcDbEntity
  8
0
100
AcDbLine
 62
2
  6
CONTINUOUS
 10
75.0539855722
 20
9.5420032339
 11
74.7879050537
 21
8.0329859648
  0
LINE
  5
21D
100
AcDbEntity
  8
0
100
AcDbLine
 62
2
  6
CONTINUOUS
 10
77.7022587796
 20
8.8713284476
 11
77.9683382981
 21
10.3803457168
  0
LINE
  5
21E
100
AcDbEntity
  8
0
100
AcDbLine
 62
2
  6
CONTINUOUS
 10
79.5611904155
 20
10.3803457168
 11
79.1472871645
 21
8.0329859648
  0
LINE
  5
21F
100
AcDbEntity
  8
0
100
AcDbLine
 62
2
  6
CONTINUOUS
 10
80.4048008888
 20
8.0329859648
 11
80.8187041397
 21
10.3803457168
  0
LINE
  5
220
100
AcDbEntity
  8
0
100
AcDbLine
 62
2
  6
CONTINUOUS
 10
82.2390275694
 20
9.8773396271
 11
82.1651167031
 21
9.4581683856
  0
LINE
  5
221
100
AcDbEntity
  8
0
100
AcDbLine
 62
2
  6
CONTINUOUS
 10
82.0764228636
 20
8.9551632959
 11
82.0025119974
 21
8.5359920545
  0
LINE
  5
222
100
AcDbEntity
  8
0
100
AcDbLine
 62
2
  6
CONTINUOUS
 10
84.3448077585
 20
9.4581683856
 11
84.256113919
 21
8.9551632959
  0
LINE
  5
223
100
AcDbEntity
  8
0
100
AcDbLine
 62
2
  6
CONTINUOUS
 10
85.010417554
 20
10.3803457168
 11
84.9217247145
 21
9.8773396271
  0
LINE
  5
224
100
AcDbEntity
  8
0
100
AcDbLine
 62
2
  6
CONTINUOUS
 10
84.6852081425
 20
8.5359920545
 11
84.596515303
 21
8.0329859648
  0
LINE
  5
225
100
AcDbEntity
  8
0
100
AcDbLine
 62
2
  6
CONTINUOUS
 10
85.5789415251
 20
8.850126486
 11
85.8487610368
 21
10.3803457168
  0
LINE
  5
226
100
AcDbEntity
  8
0
100
AcDbLine
 62
2
  6
CONTINUOUS
 10
87.357777306
 20
10.3803457168
 11
87.1119527508
 21
8.9862012398
  0
LINE
  5
227
100
AcDbEntity
  8
0
100
AcDbLine
 62
2
  6
CONTINUOUS
 10
88.9423444384
 20
8.907020383
 11
89.2021319682
 21
10.3803457168
  0
LINE
  5
228
100
AcDbEntity
  8
0
100
AcDbLine
 62
2
  6
CONTINUOUS
 10
90.7111492373
 20
10.3803457168
 11
90.4145627741
 21
8.6983237607
  0
LINE
  5
229
100
AcDbEntity
  8
0
100
AcDbLine
 62
2
  6
CONTINUOUS
 10
91.1945133626
 20
9.7935057788
 11
91.2979891753
 21
10.3803457168
  0
LINE
  5
22A
100
AcDbEntity
  8
0
100
AcDbLine
 62
2
  6
CONTINUOUS
 10
92.0577658004
 20
8.0329859648
 11
92.3681932386
 21
9.7935057788
  0
LINE
  5
22B
100
AcDbEntity
  8
0
100
AcDbLine
 62
2
  6
CONTINUOUS
 10
94.0448782043
 20
9.7935057788
 11
93.7344517661
 21
8.0329859648
  0
LINE
  5
22C
100
AcDbEntity
  8
0
100
AcDbLine
 62
2
  6
CONTINUOUS
 10
95.322033893
 20
10.3803457168
 11
95.2185580803
 21
9.7935057788
  0
LINE
  5
22D
100
AcDbEntity
  8
0
100
AcDbLine
 62
2
  6
CONTINUOUS
 10
95.908873831
 20
10.3803457168
 11
95.49497158
 21
8.0329859648
  0
LINE
  5
22E
100
AcDbEntity
  8
0
100
AcDbLine
 62
2
  6
CONTINUOUS
 10
97.1716565457
 20
8.0329859648
 11
97.3194792782
 21
8.8713284476
  0
LINE
  5
22F
100
AcDbEntity
  8
0
100
AcDbLine
 62
2
  6
CONTINUOUS
 10
97.4081721177
 20
9.3743345373
 11
97.5116479304
 21
9.9611744753
  0
LINE
  5
230
100
AcDbEntity
  8
0
100
AcDbLine
 62
2
  6
CONTINUOUS
 10
101.1957022634
 20
8.0329859648
 11
101.6096045144
 21
10.3803457168
  0
LINE
  5
231
100
AcDbEntity
  8
0
100
AcDbLine
 62
2
  6
CONTINUOUS
 10
103.28629048
 20
10.3803457168
 11
102.8723872291
 21
8.0329859648
  0
LINE
  5
232
100
AcDbEntity
  8
0
100
AcDbLine
 62
2
  6
CONTINUOUS
 10
104.2137358016
 20
8.0329859648
 11
104.6276390526
 21
10.3803457168
  0
LINE
  5
233
100
AcDbEntity
  8
0
100
AcDbLine
 62
2
  6
CONTINUOUS
 10
106.3043240183
 20
10.3803457168
 11
106.1121553661
 21
9.2904996891
  0
LINE
  5
234
100
AcDbEntity
  8
0
100
AcDbLine
 62
2
  6
CONTINUOUS
 10
106.0530264731
 20
8.9551632959
 11
105.8904217673
 21
8.0329859648
  0
LINE
  5
235
100
AcDbEntity
  8
0
100
AcDbLine
 62
2
  6
CONTINUOUS
 10
117.8923160475
 20
8.5313940628
 11
118.1405795982
 21
9.9393685148
  0
LINE
  5
236
100
AcDbEntity
  8
0
100
AcDbLine
 62
2
  6
CONTINUOUS
 10
119.4637212037
 20
8.8526434815
 11
119.6196779214
 21
9.7371138808
  0
LINE
  5
237
100
AcDbEntity
  8
0
100
AcDbLine
 62
2
  6
CONTINUOUS
 10
120.5561772267
 20
8.8812524297
 11
120.5944831573
 21
9.0984910365
  0
LINE
  5
238
100
AcDbEntity
  8
0
100
AcDbLine
 62
2
  6
CONTINUOUS
 10
121.0125094008
 20
8.0329859648
 11
121.017391392
 21
8.0606719147
  0
LINE
  5
239
100
AcDbEntity
  8
0
100
AcDbLine
 62
2
  6
CONTINUOUS
 10
121.1430231646
 20
8.7731656253
 11
121.1620821301
 21
8.8812524297
  0
LINE
  5
23A
100
AcDbEntity
  8
0
100
AcDbLine
 62
2
  6
CONTINUOUS
 10
122.5272706596
 20
8.0329859648
 11
122.7151483196
 21
9.0984910365
  0
LINE
  5
23B
100
AcDbEntity
  8
0
100
AcDbLine
 62
2
  6
CONTINUOUS
 10
122.8291061133
 20
9.7447798669
 11
122.854131068
 21
9.8867056101
  0
LINE
  5
23C
100
AcDbEntity
  8
0
100
AcDbLine
 62
2
  6
CONTINUOUS
 10
109.7467977884
 20
8.0329859648
 11
107.6509415813
 21
8.0329859648
  0
LINE
  5
23D
100
AcDbEntity
  8
0
100
AcDbLine
 62
2
  6
CONTINUOUS
 10
73.1950539363
 20
8.0329859648
 11
74.7879050537
 21
8.0329859648
  0
LINE
  5
23E
100
AcDbEntity
  8
0
100
AcDbLine
 62
2
  6
CONTINUOUS
 10
105.8904217673
 20
8.0329859648
 11
104.2137358016
 21
8.0329859648
  0
LINE
  5
23F
100
AcDbEntity
  8
0
100
AcDbLine
 62
2
  6
CONTINUOUS
 10
102.8723872291
 20
8.0329859648
 11
101.1957022634
 21
8.0329859648
  0
LINE
  5
240
100
AcDbEntity
  8
0
100
AcDbLine
 62
2
  6
CONTINUOUS
 10
93.7344517661
 20
8.0329859648
 11
92.0577658004
 21
8.0329859648
  0
LINE
  5
241
100
AcDbEntity
  8
0
100
AcDbLine
 62
2
  6
CONTINUOUS
 10
95.49497158
 20
8.0329859648
 11
97.1716565457
 21
8.0329859648
  0
LINE
  5
242
100
AcDbEntity
  8
0
100
AcDbLine
 62
2
  6
CONTINUOUS
 10
84.596515303
 20
8.0329859648
 11
80.4048008888
 21
8.0329859648
  0
LINE
  5
243
100
AcDbEntity
  8
0
100
AcDbLine
 62
2
  6
CONTINUOUS
 10
98.5968389666
 20
8.0329859648
 11
100.5250274771
 21
8.0329859648
  0
LINE
  5
244
100
AcDbEntity
  8
0
100
AcDbLine
 62
2
  6
CONTINUOUS
 10
79.1472871645
 20
8.0329859648
 11
77.5544360471
 21
8.0329859648
  0
LINE
  5
245
100
AcDbEntity
  8
0
100
AcDbLine
 62
2
  6
CONTINUOUS
 10
111.8930159044
 20
8.0329859648
 11
113.5278499458
 21
8.0329859648
  0
LINE
  5
246
100
AcDbEntity
  8
0
100
AcDbLine
 62
2
  6
CONTINUOUS
 10
115.6792490525
 20
8.0329859648
 11
117.198528303
 21
8.0329859648
  0
LINE
  5
247
100
AcDbEntity
  8
0
100
AcDbLine
 62
2
  6
CONTINUOUS
 10
121.0125094008
 20
8.0329859648
 11
122.5272706596
 21
8.0329859648
  0
LINE
  5
248
100
AcDbEntity
  8
0
100
AcDbLine
 62
2
  6
CONTINUOUS
 10
113.8790013104
 20
8.5011891175
 11
115.5621982643
 21
8.5011891175
  0
LINE
  5
249
100
AcDbEntity
  8
0
100
AcDbLine
 62
2
  6
CONTINUOUS
 10
82.0025119974
 20
8.5359920545
 11
84.6852081425
 21
8.5359920545
  0
LINE
  5
24A
100
AcDbEntity
  8
0
100
AcDbLine
 62
2
  6
CONTINUOUS
 10
114.1519948163
 20
8.8651804588
 11
115.471200429
 21
8.8651804588
  0
LINE
  5
24B
100
AcDbEntity
  8
0
100
AcDbLine
 62
2
  6
CONTINUOUS
 10
120.5561772267
 20
8.8812524297
 11
121.1620821301
 21
8.8812524297
  0
LINE
  5
24C
100
AcDbEntity
  8
0
100
AcDbLine
 62
2
  6
CONTINUOUS
 10
84.256113919
 20
8.9551632959
 11
82.0764228636
 21
8.9551632959
  0
LINE
  5
24D
100
AcDbEntity
  8
0
100
AcDbLine
 62
2
  6
CONTINUOUS
 10
120.5944831573
 20
9.0984910365
 11
122.7151483196
 21
9.0984910365
  0
LINE
  5
24E
100
AcDbEntity
  8
0
100
AcDbLine
 62
2
  6
CONTINUOUS
 10
98.4693321973
 20
9.3743345373
 11
97.4081721177
 21
9.3743345373
  0
LINE
  5
24F
100
AcDbEntity
  8
0
100
AcDbLine
 62
2
  6
CONTINUOUS
 10
82.1651167031
 20
9.4581683856
 11
84.3448077585
 21
9.4581683856
  0
LINE
  5
250
100
AcDbEntity
  8
0
100
AcDbLine
 62
2
  6
CONTINUOUS
 10
121.2929528933
 20
9.7447798669
 11
122.8291061133
 21
9.7447798669
  0
LINE
  5
251
100
AcDbEntity
  8
0
100
AcDbLine
 62
2
  6
CONTINUOUS
 10
95.2185580803
 20
9.7935057788
 11
94.0448782043
 21
9.7935057788
  0
LINE
  5
252
100
AcDbEntity
  8
0
100
AcDbLine
 62
2
  6
CONTINUOUS
 10
92.3681932386
 20
9.7935057788
 11
91.1945133626
 21
9.7935057788
  0
LINE
  5
253
100
AcDbEntity
  8
0
100
AcDbLine
 62
2
  6
CONTINUOUS
 10
84.9217247145
 20
9.8773396271
 11
82.2390275694
 21
9.8773396271
  0
LINE
  5
254
100
AcDbEntity
  8
0
100
AcDbLine
 62
2
  6
CONTINUOUS
 10
97.5116479304
 20
9.9611744753
 11
98.7657596609
 21
9.9611744753
  0
LINE
  5
255
100
AcDbEntity
  8
0
100
AcDbLine
 62
2
  6
CONTINUOUS
 10
73.6089561873
 20
10.3803457168
 11
75.2018073047
 21
10.3803457168
  0
LINE
  5
256
100
AcDbEntity
  8
0
100
AcDbLine
 62
2
  6
CONTINUOUS
 10
77.9683382981
 20
10.3803457168
 11
79.5611904155
 21
10.3803457168
  0
LINE
  5
257
100
AcDbEntity
  8
0
100
AcDbLine
 62
2
  6
CONTINUOUS
 10
80.8187041397
 20
10.3803457168
 11
85.010417554
 21
10.3803457168
  0
LINE
  5
258
100
AcDbEntity
  8
0
100
AcDbLine
 62
2
  6
CONTINUOUS
 10
99.0107422175
 20
10.3803457168
 11
95.908873831
 21
10.3803457168
  0
LINE
  5
259
100
AcDbEntity
  8
0
100
AcDbLine
 62
2
  6
CONTINUOUS
 10
85.8487610368
 20
10.3803457168
 11
87.357777306
 21
10.3803457168
  0
LINE
  5
25A
100
AcDbEntity
  8
0
100
AcDbLine
 62
2
  6
CONTINUOUS
 10
89.2021319682
 20
10.3803457168
 11
90.7111492373
 21
10.3803457168
  0
LINE
  5
25B
100
AcDbEntity
  8
0
100
AcDbLine
 62
2
  6
CONTINUOUS
 10
91.2979891753
 20
10.3803457168
 11
95.322033893
 21
10.3803457168
  0
LINE
  5
25C
100
AcDbEntity
  8
0
100
AcDbLine
 62
2
  6
CONTINUOUS
 10
101.6096045144
 20
10.3803457168
 11
103.28629048
 21
10.3803457168
  0
LINE
  5
25D
100
AcDbEntity
  8
0
100
AcDbLine
 62
2
  6
CONTINUOUS
 10
104.6276390526
 20
10.3803457168
 11
106.3043240183
 21
10.3803457168
  0
LINE
  5
25E
100
AcDbEntity
  8
0
100
AcDbLine
 62
2
  6
CONTINUOUS
 10
108.0476608634
 20
10.3803457168
 11
110.1607010394
 21
10.3803457168
  0
LINE
  5
25F
100
AcDbEntity
  8
0
100
AcDbLine
 62
2
  6
CONTINUOUS
 10
113.6535357184
 20
10.3803457168
 11
116.611688365
 21
10.3803457168
  0
LINE
  5
260
100
AcDbEntity
  8
0
100
AcDbLine
 62
2
  6
CONTINUOUS
 10
111.8930159044
 20
8.0329859648
 11
113.6535357184
 21
10.3803457168
  0
LINE
  5
261
100
AcDbEntity
  8
0
100
AcDbLine
 62
2
  6
CONTINUOUS
 10
113.5278499458
 20
8.0329859648
 11
113.8790013104
 21
8.5011891175
  0
LINE
  5
262
100
AcDbEntity
  8
0
100
AcDbLine
 62
2
  6
CONTINUOUS
 10
114.1519948163
 20
8.8651804588
 11
115.1413990258
 21
10.1843850714
  0
LINE
  5
263
100
AcDbEntity
  8
0
100
AcDbLine
 62
2
  6
CONTINUOUS
 10
106.1121553661
 20
9.2904996891
 11
108.0476608634
 21
10.3803457168
  0
LINE
  5
264
100
AcDbEntity
  8
0
100
AcDbLine
 62
2
  6
CONTINUOUS
 10
110.1607010394
 20
10.3803457168
 11
107.8554912111
 21
9.2904996891
  0
ARC
  5
265
100
AcDbEntity
  8
0
100
AcDbCircle
 62
2
  6
CONTINUOUS
 10
87.4421951532
 20
8.9279703451
 40
0.335336967
100
AcDbArc
 50
169.9999581174
 51
257.3876854477
  0
ARC
  5
266
100
AcDbEntity
  8
0
100
AcDbCircle
 62
2
  6
CONTINUOUS
 10
87.9547452256
 20
11.2186881996
 40
2.6826964808
100
AcDbArc
 50
257.3877479741
 51
286.262665946
  0
ARC
  5
267
100
AcDbEntity
  8
0
100
AcDbCircle
 62
2
  6
CONTINUOUS
 10
88.612102036
 20
8.9652512777
 40
0.3353371135
100
AcDbArc
 50
286.2627744417
 51
349.9999581174
  0
ARC
  5
268
100
AcDbEntity
  8
0
100
AcDbCircle
 62
2
  6
CONTINUOUS
 10
89.9191986705
 20
8.7856696027
 40
0.5030061094
100
AcDbArc
 50
284.4613069912
 51
350.0000240953
  0
ARC
  5
269
100
AcDbEntity
  8
0
100
AcDbCircle
 62
2
  6
CONTINUOUS
 10
87.9512572319
 20
16.4164137933
 40
8.3834278607
100
AcDbArc
 50
256.2209051549
 51
284.4612653568
  0
ARC
  5
26A
100
AcDbEntity
  8
0
100
AcDbCircle
 62
2
  6
CONTINUOUS
 10
86.0743056287
 20
8.7627806441
 40
0.503005856
100
AcDbArc
 50
170.0000240953
 51
256.2208762229
  0
ARC
  5
26B
100
AcDbEntity
  8
0
100
AcDbCircle
 62
2
  6
CONTINUOUS
 10
99.5460702487
 20
10.1920990574
 40
1.3167024847
100
AcDbArc
 50
270.8139664646
 51
287.332045501
  0
ARC
  5
26C
100
AcDbEntity
  8
0
100
AcDbCircle
 62
2
  6
CONTINUOUS
 10
99.6328970916
 20
9.9138785609
 40
1.025248295
100
AcDbArc
 50
287.332041554
 51
306.9952583027
  0
ARC
  5
26D
100
AcDbEntity
  8
0
100
AcDbCircle
 62
2
  6
CONTINUOUS
 10
99.765875851
 20
9.7373788803
 40
0.8042604703
100
AcDbArc
 50
306.9952804959
 51
331.1991469186
  0
ARC
  5
26E
100
AcDbEntity
  8
0
100
AcDbCircle
 62
2
  6
CONTINUOUS
 10
99.9698034819
 20
9.6252650832
 40
0.5715468569
100
AcDbArc
 50
331.1991187457
 51
28.8007934081
  0
ARC
  5
26F
100
AcDbEntity
  8
0
100
AcDbCircle
 62
2
  6
CONTINUOUS
 10
99.765875851
 20
9.5131502861
 40
0.8042612359
100
AcDbArc
 50
28.8008530814
 51
53.0047195041
  0
ARC
  5
270
100
AcDbEntity
  8
0
100
AcDbCircle
 62
2
  6
CONTINUOUS
 10
99.6328970916
 20
9.3366506055
 40
1.0252479986
100
AcDbArc
 50
53.0047416973
 51
72.667958446
  0
ARC
  5
271
100
AcDbEntity
  8
0
100
AcDbCircle
 62
2
  6
CONTINUOUS
 10
99.5460702487
 20
9.058430109
 40
1.3167024858
100
AcDbArc
 50
72.667954499
 51
88.2637233921
  0
ARC
  5
272
100
AcDbEntity
  8
0
100
AcDbCircle
 62
2
  6
CONTINUOUS
 10
99.1751869199
 20
-1.8011792383
 40
12.1826353158
100
AcDbArc
 50
88.0677150838
 51
90.7734183662
  0
ARC
  5
273
100
AcDbEntity
  8
0
100
AcDbCircle
 62
2
  6
CONTINUOUS
 10
97.8450613271
 20
126.7276131626
 40
117.8646306221
100
AcDbArc
 50
270.6818443076
 51
270.8360085966
  0
ARC
  5
274
100
AcDbEntity
  8
0
100
AcDbCircle
 62
2
  6
CONTINUOUS
 10
98.7233307377
 20
9.4400284185
 40
0.5228699142
100
AcDbArc
 50
74.2117758502
 51
85.3455498836
  0
ARC
  5
275
100
AcDbEntity
  8
0
100
AcDbCircle
 62
2
  6
CONTINUOUS
 10
98.7726766484
 20
9.6145531026
 40
0.3415029724
100
AcDbArc
 50
49.80595642
 51
74.2116374161
  0
ARC
  5
276
100
AcDbEntity
  8
0
100
AcDbCircle
 62
2
  6
CONTINUOUS
 10
98.8829964487
 20
9.7451268663
 40
0.1705654939
100
AcDbArc
 50
340.193968067
 51
49.8058745946
  0
ARC
  5
277
100
AcDbEntity
  8
0
100
AcDbCircle
 62
2
  6
CONTINUOUS
 10
98.7221697398
 20
9.8030467615
 40
0.3415041793
100
AcDbArc
 50
315.7883508031
 51
340.1940327095
  0
ARC
  5
278
100
AcDbEntity
  8
0
100
AcDbCircle
 62
2
  6
CONTINUOUS
 10
98.592172975
 20
9.9295155326
 40
0.5228695114
100
AcDbArc
 50
298.8638229053
 51
315.7882717965
  0
ARC
  5
279
100
AcDbEntity
  8
0
100
AcDbCircle
 62
2
  6
CONTINUOUS
 10
98.4693321973
 20
10.1523731293
 40
0.777340892
100
AcDbArc
 50
285.0000006491
 51
298.8638426666
  0
ARC
  5
27A
100
AcDbEntity
  8
0
100
AcDbCircle
 62
2
  6
CONTINUOUS
 10
98.4666332022
 20
10.1523751293
 40
0.7780452733
100
AcDbArc
 50
270.1987562222
 51
285.191946156
  0
ARC
  5
27B
100
AcDbEntity
  8
0
100
AcDbCircle
 62
2
  6
CONTINUOUS
 10
120.6619260353
 20
-2.9792851063
 40
13.3596308353
100
AcDbArc
 50
81.6598945895
 51
99.8027888696
  0
ARC
  5
27C
100
AcDbEntity
  8
0
100
AcDbCircle
 62
2
  6
CONTINUOUS
 10
120.1292479993
 20
21.3907487912
 40
13.3596309136
100
AcDbArc
 50
261.4614728694
 51
273.8118136955
  0
ARC
  5
27D
100
AcDbEntity
  8
0
100
AcDbCircle
 62
2
  6
CONTINUOUS
 10
118.4389290582
 20
9.88676061
 40
0.302952678
100
AcDbArc
 50
99.8027796749
 51
169.9998425607
  0
ARC
  5
27E
100
AcDbEntity
  8
0
100
AcDbCircle
 62
2
  6
CONTINUOUS
 10
118.1906655075
 20
8.478787158
 40
0.3029519545
100
AcDbArc
 50
170.000028812
 51
261.4614258049
  0
ARC
  5
27F
100
AcDbEntity
  8
0
100
AcDbCircle
 62
2
  6
CONTINUOUS
 10
122.555781608
 20
9.9393125149
 40
0.3029519545
100
AcDbArc
 50
350.000028812
 51
81.6598857953
  0
ARC
  5
280
100
AcDbEntity
  8
0
100
AcDbCircle
 62
2
  6
CONTINUOUS
 10
120.4567834065
 20
6.5595326313
 40
3.4740280808
100
AcDbArc
 50
80.2083456985
 51
99.7818280968
  0
ARC
  5
281
100
AcDbEntity
  8
0
100
AcDbCircle
 62
2
  6
CONTINUOUS
 10
120.2291178185
 20
11.9365299005
 40
3.4740282835
100
AcDbArc
 50
261.5304821195
 51
281.1930777907
  0
ARC
  5
282
100
AcDbEntity
  8
0
100
AcDbCircle
 62
2
  6
CONTINUOUS
 10
119.9180273815
 20
9.684506976
 40
0.3029528628
100
AcDbArc
 50
99.7818543358
 51
170.000028812
  0
ARC
  5
283
100
AcDbEntity
  8
0
100
AcDbCircle
 62
2
  6
CONTINUOUS
 10
120.9960754306
 20
9.6844149762
 40
0.3029523856
100
AcDbArc
 50
11.4934186918
 51
80.2083192078
  0
ARC
  5
284
100
AcDbEntity
  8
0
100
AcDbCircle
 62
2
  6
CONTINUOUS
 10
119.7620716637
 20
8.8000365767
 40
0.3029529393
100
AcDbArc
 50
170.000061653
 51
261.5304593161
  0
ARC
  5
285
100
AcDbEntity
  8
0
100
AcDbCircle
 62
2
  6
CONTINUOUS
 10
120.8446737046
 20
8.8257725301
 40
0.3029520503
100
AcDbArc
 50
281.1930976978
 51
350.000028812
  0
ENDBLK
  5
286
100
AcDbEntity
  8
0
  6
BYBLOCK
 62
0
100
AcDbBlockEnd
  0
BLOCK
  5
287
100
AcDbEntity
  8
0
100
AcDbBlockBegin
  2
*T1
 70
1
 10
0.0
 20
0.0
  3
*T1
  1

  0
LINE
  5
288
100
AcDbEntity
  8
0
100
AcDbLine
 62
7
  6
CONTINUOUS
 10
0.0
 20
0.0
 11
133.0
 21
0.0
  0
LINE
  5
289
100
AcDbEntity
  8
0
100
AcDbLine
 62
7
  6
CONTINUOUS
 10
0.0
 20
0.0
 11
0.0
 21
-46.0
  0
LINE
  5
28A
100
AcDbEntity
  8
0
100
AcDbLine
 62
7
  6
CONTINUOUS
 10
82.0
 20
-5.0
 11
133.0
 21
-5.0
  0
LINE
  5
28B
100
AcDbEntity
  8
0
100
AcDbLine
 62
7
  6
CONTINUOUS
 10
0.0
 20
-10.0
 11
41.0
 21
-10.0
  0
LINE
  5
28C
100
AcDbEntity
  8
0
100
AcDbLine
 62
7
  6
CONTINUOUS
 10
82.0
 20
-10.0
 11
133.0
 21
-10.0
  0
LINE
  5
28D
100
AcDbEntity
  8
0
100
AcDbLine
 62
7
  6
CONTINUOUS
 10
82.0
 20
-15.0
 11
133.0
 21
-15.0
  0
LINE
  5
28E
100
AcDbEntity
  8
0
100
AcDbLine
 62
7
  6
CONTINUOUS
 10
0.0
 20
-20.0
 11
133.0
 21
-20.0
  0
LINE
  5
28F
100
AcDbEntity
  8
0
100
AcDbLine
 62
7
  6
CONTINUOUS
 10
82.0
 20
-28.0
 11
133.0
 21
-28.0
  0
LINE
  5
290
100
AcDbEntity
  8
0
100
AcDbLine
 62
7
  6
CONTINUOUS
 10
0.0
 20
-37.0
 11
133.0
 21
-37.0
  0
LINE
  5
291
100
AcDbEntity
  8
0
100
AcDbLine
 62
7
  6
CONTINUOUS
 10
0.0
 20
-46.0
 11
133.0
 21
-46.0
  0
LINE
  5
292
100
AcDbEntity
  8
0
100
AcDbLine
 62
7
  6
CONTINUOUS
 10
41.0
 20
0.0
 11
41.0
 21
-20.0
  0
LINE
  5
293
100
AcDbEntity
  8
0
100
AcDbLine
 62
7
  6
CONTINUOUS
 10
64.0
 20
0.0
 11
64.0
 21
-20.0
  0
LINE
  5
294
100
AcDbEntity
  8
0
100
AcDbLine
 62
7
  6
CONTINUOUS
 10
82.0
 20
0.0
 11
82.0
 21
-46.0
  0
LINE
  5
295
100
AcDbEntity
  8
0
100
AcDbLine
 62
7
  6
CONTINUOUS
 10
101.0
 20
0.0
 11
101.0
 21
-20.0
  0
LINE
  5
296
100
AcDbEntity
  8
0
100
AcDbLine
 62
7
  6
CONTINUOUS
 10
116.0
 20
0.0
 11
116.0
 21
-37.0
  0
LINE
  5
297
100
AcDbEntity
  8
0
100
AcDbLine
 62
7
  6
CONTINUOUS
 10
133.0
 20
0.0
 11
133.0
 21
-46.0
  0
MTEXT
  5
298
100
AcDbEntity
  8
0
100
AcDbMText
 62
5
  6
CONTINUOUS
  7
TEXTSTYLE_2
 71
1
 72
1
 10
0.0625
 20
-2.7341257188
 30
0.0
 11
1.0
 21
0.0
 31
0.0
 44
0.9
  1
\Q15.0; Allgemeintoleranzen\P ISO 2768-m
 40
1.8
 41
49.2
  0
MTEXT
  5
299
100
AcDbEntity
  8
0
100
AcDbMText
 62
5
  6
CONTINUOUS
  7
TEXTSTYLE_2
 71
2
 72
1
 10
52.5
 20
-1.5352761804
 30
0.0
 11
1.0
 21
0.0
 31
0.0
 44
0.9
  1
\Q15.0;Werkstoff
 40
2.0
 41
26.2857142857
  0
MTEXT
  5
29A
100
AcDbEntity
  8
0
100
AcDbMText
 62
5
  6
CONTINUOUS
  7
TEXTSTYLE_2
 71
2
 72
1
 10
73.0
 20
-1.5352761804
 30
0.0
 11
1.0
 21
0.0
 31
0.0
 44
0.9
  1
\Q15.0;Massstab:
 40
2.0
 41
24.2857142857
  0
MTEXT
  5
29B
100
AcDbEntity
  8
0
100
AcDbMText
 62
5
  6
CONTINUOUS
  7
TEXTSTYLE_2
 71
2
 72
1
 10
108.5
 20
-1.5352761804
 30
0.0
 11
1.0
 21
0.0
 31
0.0
 44
0.9
  1
\Q15.0;Datum
 40
2.0
 41
15.3333333333
  0
MTEXT
  5
29C
100
AcDbEntity
  8
0
100
AcDbMText
 62
5
  6
CONTINUOUS
  7
TEXTSTYLE_2
 71
2
 72
1
 10
124.5
 20
-1.5352761804
 30
0.0
 11
1.0
 21
0.0
 31
0.0
 44
0.9
  1
\Q15.0;Name
 40
2.0
 41
12.5714285714
  0
MTEXT
  5
29D
100
AcDbEntity
  8
0
100
AcDbMText
 62
5
  6
CONTINUOUS
  7
TEXTSTYLE_2
 71
1
 72
1
 10
82.0625
 20
-6.5352761804
 30
0.0
 11
1.0
 21
0.0
 31
0.0
 44
0.9
  1
\Q15.0; Gezeichnet
 40
2.0
 41
30.380952381
  0
MTEXT
  5
29E
100
AcDbEntity
  8
0
100
AcDbMText
 62
5
  6
CONTINUOUS
  7
TEXTSTYLE_2
 71
2
 72
1
 10
108.5
 20
-6.5352761804
 30
0.0
 11
1.0
 21
0.0
 31
0.0
 44
0.9
  1
\Q15.0;19.05.98
 40
2.0
 41
22.2857142857
  0
MTEXT
  5
29F
100
AcDbEntity
  8
0
100
AcDbMText
 62
5
  6
CONTINUOUS
  7
TEXTSTYLE_2
 71
2
 72
1
 10
124.5
 20
-6.5352761804
 30
0.0
 11
1.0
 21
0.0
 31
0.0
 44
0.9
  1
\Q15.0;Alinjak
 40
2.0
 41
18.0952380952
  0
MTEXT
  5
2A0
100
AcDbEntity
  8
0
100
AcDbMText
 62
5
  6
CONTINUOUS
  7
TEXTSTYLE_2
 71
1
 72
1
 10
0.0625
 20
-12.7341257188
 30
0.0
 11
1.0
 21
0.0
 31
0.0
 44
0.9
  1
\Q15.0; Zeichnung urheberrechtlich\P geschuetzt (DIN 34) (C)
 40
1.8
 41
66.0
  0
MTEXT
  5
2A1
100
AcDbEntity
  8
0
100
AcDbMText
 62
5
  6
CONTINUOUS
  7
TEXTSTYLE_2
 71
1
 72
1
 10
82.0625
 20
-11.5352761804
 30
0.0
 11
1.0
 21
0.0
 31
0.0
 44
0.9
  1
\Q15.0; Freigegeben
 40
2.0
 41
33.5238095238
  0
MTEXT
  5
2A2
100
AcDbEntity
  8
0
100
AcDbMText
 62
5
  6
CONTINUOUS
  7
TEXTSTYLE_2
 71
2
 72
1
 10
73.0
 20
-16.5352761804
 30
0.0
 11
1.0
 21
0.0
 31
0.0
 44
0.9
  1
(\Q15.0;A4\Q0.0;)
 40
2.0
 41
10.0
  0
MTEXT
  5
2A3
100
AcDbEntity
  8
0
100
AcDbMText
 62
5
  6
CONTINUOUS
  7
TEXTSTYLE_2
 71
1
 72
1
 10
82.0625
 20
-16.5352761804
 30
0.0
 11
1.0
 21
0.0
 31
0.0
 44
0.9
  1
\Q15.0; Geaendert
 40
2.0
 41
28.2857142857
  0
MTEXT
  5
2A4
100
AcDbEntity
  8
0
100
AcDbMText
 62
5
  6
CONTINUOUS
  7
TEXTSTYLE_2
 71
1
 72
1
 10
0.0625
 20
-20.921875
 30
0.0
 11
1.0
 21
0.0
 31
0.0
 44
0.9
  1
\Q15.0; Benennung
 40
2.0
 41
29.1428571429
  0
MTEXT
  5
2A5
100
AcDbEntity
  8
0
100
AcDbMText
 62
5
  6
CONTINUOUS
  7
TEXTSTYLE_2
 71
1
 72
1
 10
82.0625
 20
-20.9647238196
 30
0.0
 11
1.0
 21
0.0
 31
0.0
 44
1.2
  1
\Q15.0; Aend.-Nr.\P  
 40
2.0
 41
28.2857142857
  0
MTEXT
  5
2A6
100
AcDbEntity
  8
0
100
AcDbMText
 62
5
  6
CONTINUOUS
  7
TEXTSTYLE_2
 71
2
 72
1
 10
124.5
 20
-20.835314297
 30
0.0
 11
1.0
 21
0.0
 31
0.0
 44
0.9
  1
\Q15.0;Aend.-Index\P\H3.0; 
 40
2.0
 41
31.1428571429
  0
MTEXT
  5
2A7
100
AcDbEntity
  8
0
100
AcDbMText
 62
5
  6
CONTINUOUS
  7
TEXTSTYLE_2
 71
2
 72
1
 10
41.0
 20
-23.8117333157
 30
0.0
 11
1.0
 21
0.0
 31
0.0
 44
0.9
  1
\Q15.0;Gooseneck
 40
3.5
 41
46.3333333333
  0
MTEXT
  5
2A8
100
AcDbEntity
  8
0
100
AcDbMText
 62
5
  6
CONTINUOUS
  7
TEXTSTYLE_2
 71
2
 72
1
 10
40.25
 20
-30.088190451
 30
0.0
 11
1.0
 21
0.0
 31
0.0
 44
0.9
  1
\Q15.0;GNS36
 40
5.0
 41
38.5714285714
  0
MTEXT
  5
2A9
100
AcDbEntity
  8
0
100
AcDbMText
 62
5
  6
CONTINUOUS
  7
TEXTSTYLE_2
 71
1
 72
1
 10
82.0625
 20
-31.5352761804
 30
0.0
 11
1.0
 21
0.0
 31
0.0
 44
0.9
  1
\Q15.0; Ersatz fuer:
 40
2.0
 41
34.5714285714
  0
MTEXT
  5
2AA
100
AcDbEntity
  8
0
100
AcDbMText
 62
5
  6
CONTINUOUS
  7
TEXTSTYLE_2
 71
2
 72
1
 10
124.5
 20
-29.4647238196
 30
0.0
 11
1.0
 21
0.0
 31
0.0
 44
1.2
  1
\Q15.0;Blatt 1\Pvon 1 Bl.
 40
2.0
 41
24.5714285714
  0
MTEXT
  5
2AB
100
AcDbEntity
  8
0
100
AcDbMText
 62
5
  6
CONTINUOUS
  7
TEXTSTYLE_2
 71
1
 72
1
 10
82.0625
 20
-37.5352761804
 30
0.0
 11
1.0
 21
0.0
 31
0.0
 44
0.9
  1
\Q15.0; Zeichn. Nr.
 40
2.0
 41
32.9523809524
  0
MTEXT
  5
2AC
100
AcDbEntity
  8
0
100
AcDbMText
 62
5
  6
CONTINUOUS
  7
TEXTSTYLE_2
 71
2
 72
1
 10
108.5
 20
-41.3117333157
 30
0.0
 11
1.0
 21
0.0
 31
0.0
 44
0.9
  1
\Q15.0;ST-GNS36
 40
3.5
 41
43.5
  0
ENDBLK
  5
2AD
100
AcDbEntity
  8
0
  6
BYBLOCK
 62
0
100
AcDbBlockEnd
  0
ENDSEC
  0
SECTION
  2
ENTITIES
  0
MTEXT
  5
2AE
100
AcDbEntity
  8
0
100
AcDbMText
 62
4
  6
CONTINUOUS
  7
STANDARD
 71
1
 72
1
 10
126.0467415329
 20
10.4742136272
 30
0.0
 11
1.0
 21
0.0
 31
0.0
 44
0.9
  1
\Q15.0;FL-9494 SCHAAN
 40
2.43
 41
26.4985714286
  0
INSERT
  5
2AF
100
AcDbEntity
  8
0
100
AcDbBlockReference
 62
2
  6
CONTINUOUS
  2
SYMBOL_3_BL0
 10
98.0245925022
 20
9.2066660654
  0
ACAD_TABLE
  5
2B0
100
AcDbEntity
  8
0
 62
2
  6
CONTINUOUS
100
AcDbBlockReference
  2
*T1
 10
72.0
 20
51.0
 30
0.0
100
AcDbTable
342
       65A
343
20F
 11
1.0
 21
0.0
 31
0.0
 90
22
 91
9
 92
8
 93
0
 94
0
 95
0
 96
0
141
5.0
141
5.0
141
5.0
141
5.0
141
3.0
141
5.0
141
9.0
141
3.0
141
6.0
142
20.5
142
19.0
142
1.5
142
23.0
142
18.0
142
19.0
142
15.0
142
17.0
171
1
172
0
173
0
174
0
175
2
176
2
177
41
178
0
145
0.0
  1
\Q15.0; Allgemeintoleranzen\P ISO 2768-m
170
4
140
1.8
 64
5
171
1
172
0
173
1
174
0
175
1
176
1
177
1
178
0
145
0.0
170
1
171
1
172
0
173
0
174
0
175
1
176
2
177
1
178
0
145
0.0
170
1
171
1
172
0
173
0
174
0
175
1
176
1
177
41
178
0
145
0.0
  1
\Q15.0;Werkstoff
170
5
140
2.0
 64
5
171
1
172
0
173
0
174
0
175
1
176
1
177
41
178
0
145
0.0
  1
\Q15.0;Massstab:
170
5
140
2.0
 64
5
171
1
172
0
173
0
174
0
175
1
176
1
177
1
178
0
145
0.0
170
1
171
1
172
0
173
0
174
0
175
1
176
1
177
41
178
0
145
0.0
  1
\Q15.0;Datum
170
5
140
2.0
 64
5
171
1
172
0
173
0
174
0
175
1
176
1
177
41
178
0
145
0.0
  1
\Q15.0;Name
170
5
140
2.0
 64
5
171
1
172
0
173
1
174
0
175
1
176
1
177
1
178
0
145
0.0
170
1
171
1
172
0
173
1
174
0
175
1
176
1
177
1
178
0
145
0.0
170
1
171
1
172
0
173
1
174
0
175
1
176
1
177
1
178
0
145
0.0
170
1
171
1
172
0
173
0
174
0
175
1
176
1
177
1
178
0
145
0.0
170
1
171
1
172
0
173
0
174
0
175
1
176
1
177
1
178
0
145
0.0
170
1
171
1
172
0
173
0
174
0
175
1
176
1
177
41
178
0
145
0.0
  1
\Q15.0; Gezeichnet
170
4
140
2.0
 64
5
171
1
172
0
173
0
174
0
175
1
176
1
177
41
178
0
145
0.0
  1
\Q15.0;19.05.98
170
5
140
2.0
 64
5
171
1
172
0
173
0
174
0
175
1
176
1
177
41
178
0
145
0.0
  1
\Q15.0;Alinjak
170
5
140
2.0
 64
5
171
1
172
0
173
0
174
0
175
2
176
2
177
41
178
0
145
0.0
  1
\Q15.0; Zeichnung urheberrechtlich\P geschuetzt (DIN 34) (C)
170
4
140
1.8
 64
5
171
1
172
0
173
1
174
0
175
1
176
1
177
1
178
0
145
0.0
170
1
171
1
172
0
173
0
174
0
175
1
176
2
177
1
178
0
145
0.0
170
1
171
1
172
0
173
0
174
0
175
1
176
1
177
41
178
0
145
0.0
  1
\Q15.0; 
170
5
140
2.0
 64
5
171
1
172
0
173
0
174
0
175
1
176
1
177
41
178
0
145
0.0
  1
\Q15.0; 
170
2
140
3.5
 64
5
171
1
172
0
173
0
174
0
175
1
176
1
177
41
178
0
145
0.0
  1
\Q15.0; Freigegeben
170
4
140
2.0
 64
5
171
1
172
0
173
0
174
0
175
1
176
1
177
1
178
0
145
0.0
170
1
171
1
172
0
173
0
174
0
175
1
176
1
177
1
178
0
145
0.0
170
1
171
1
172
0
173
1
174
0
175
1
176
1
177
1
178
0
145
0.0
170
1
171
1
172
0
173
1
174
0
175
1
176
1
177
1
178
0
145
0.0
170
1
171
1
172
0
173
1
174
0
175
1
176
1
177
1
178
0
145
0.0
170
1
171
1
172
0
173
0
174
0
175
1
176
1
177
41
178
0
145
0.0
  1
\Q15.0; 
170
5
140
2.0
 64
5
171
1
172
0
173
0
174
0
175
1
176
1
177
41
178
0
145
0.0
  1
(\Q15.0;A4\Q0.0;)
170
5
140
2.0
 64
5
171
1
172
0
173
0
174
0
175
1
176
1
177
41
178
0
145
0.0
  1
\Q15.0; Geaendert
170
4
140
2.0
 64
5
171
1
172
0
173
0
174
0
175
1
176
1
177
41
178
0
145
0.0
  1
\Q15.0; 
170
5
140
2.0
 64
5
171
1
172
0
173
0
174
0
175
1
176
1
177
41
178
0
145
0.0
  1
\Q15.0; 
170
5
140
2.0
 64
5
171
1
172
0
173
0
174
0
175
2
176
1
177
41
178
0
145
0.0
  1
\Q15.0; Benennung
170
7
140
2.0
 64
5
171
1
172
0
173
1
174
0
175
1
176
1
177
1
178
0
145
0.0
170
1
171
1
172
0
173
0
174
0
175
1
176
1
177
1
178
0
145
0.0
170
1
171
1
172
0
173
0
174
0
175
1
176
1
177
1
178
0
145
0.0
170
1
171
1
172
0
173
0
174
0
175
1
176
1
177
1
178
0
145
0.0
170
1
171
1
172
0
173
0
174
0
175
2
176
2
177
41
178
0
145
0.0
  1
\Q15.0; Aend.-Nr.\P  
170
4
140
2.0
 64
5
171
1
172
0
173
1
174
0
175
1
176
1
177
1
178
0
145
0.0
170
1
171
1
172
0
173
0
174
0
175
1
176
2
177
41
178
0
145
0.0
  1
\Q15.0;Aend.-Index\P\H3.0; 
170
5
140
2.0
 64
5
171
1
172
0
173
0
174
0
175
5
176
1
177
41
178
0
145
0.0
  1
\Q15.0;Gooseneck
170
5
140
3.5
 64
5
171
1
172
0
173
1
174
0
175
1
176
1
177
1
178
0
145
0.0
170
1
171
1
172
0
173
1
174
0
175
1
176
1
177
1
178
0
145
0.0
170
1
171
1
172
0
173
1
174
0
175
1
176
1
177
1
178
0
145
0.0
170
1
171
1
172
0
173
1
174
0
175
1
176
1
177
1
178
0
145
0.0
170
1
171
1
172
0
173
1
174
0
175
1
176
1
177
1
178
0
145
0.0
170
1
171
1
172
0
173
1
174
0
175
1
176
1
177
1
178
0
145
0.0
170
1
171
1
172
0
173
1
174
0
175
1
176
1
177
1
178
0
145
0.0
170
1
171
1
172
0
173
0
174
0
175
1
176
1
177
1
178
0
145
0.0
170
1
171
1
172
0
173
0
174
0
175
1
176
1
177
1
178
0
145
0.0
170
1
171
1
172
0
173
0
174
0
175
1
176
1
177
41
178
0
145
0.0
  1
\Q15.0;GNS36
170
5
140
5.0
 64
5
171
1
172
0
173
0
174
0
175
1
176
1
177
1
178
0
145
0.0
170
1
171
1
172
0
173
0
174
0
175
1
176
1
177
1
178
0
145
0.0
170
1
171
1
172
0
173
0
174
0
175
1
176
1
177
41
178
0
145
0.0
  1
\Q15.0; Ersatz fuer:
170
4
140
2.0
 64
5
171
1
172
0
173
0
174
0
175
1
176
1
177
1
178
0
145
0.0
170
1
171
1
172
0
173
0
174
0
175
1
176
1
177
41
178
0
145
0.0
  1
\Q15.0;Blatt 1\Pvon 1 Bl.
170
5
140
2.0
 64
5
171
1
172
0
173
0
174
0
175
5
176
2
177
1
178
0
145
0.0
170
1
171
1
172
0
173
1
174
0
175
1
176
1
177
1
178
0
145
0.0
170
1
171
1
172
0
173
1
174
0
175
1
176
1
177
1
178
0
145
0.0
170
1
171
1
172
0
173
1
174
0
175
1
176
1
177
1
178
0
145
0.0
170
1
171
1
172
0
173
1
174
0
175
1
176
1
177
1
178
0
145
0.0
170
1
171
1
172
0
173
0
174
0
175
1
176
1
177
41
178
0
145
0.0
  1
\Q15.0; Zeichn. Nr.
170
4
140
2.0
 64
5
171
1
172
0
173
0
174
0
175
1
176
1
177
1
178
0
145
0.0
170
1
171
1
172
0
173
0
174
0
175
1
176
1
177
1
178
0
145
0.0
170
1
171
1
172
0
173
1
174
0
175
1
176
1
177
1
178
0
145
0.0
170
1
171
1
172
0
173
1
174
0
175
1
176
1
177
1
178
0
145
0.0
170
1
171
1
172
0
173
1
174
0
175
1
176
1
177
1
178
0
145
0.0
170
1
171
1
172
0
173
1
174
0
175
1
176
1
177
1
178
0
145
0.0
170
1
171
1
172
0
173
1
174
0
175
1
176
1
177
1
178
0
145
0.0
170
1
171
1
172
0
173
0
174
0
175
1
176
1
177
1
178
0
145
0.0
170
1
171
1
172
0
173
0
174
0
175
1
176
1
177
41
178
0
145
0.0
  1
\Q15.0;ST-GNS36
170
5
140
3.5
 64
5
171
1
172
0
173
0
174
0
175
1
176
1
177
1
178
0
145
0.0
170
1
  0
MTEXT
  5
2B1
100
AcDbEntity
  8
0
100
AcDbMText
 62
5
  6
CONTINUOUS
  7
TEXTSTYLE_3
 71
1
 72
1
 10
87.6676363636
 20
277.2978398438
 30
0.0
 11
1.0
 21
0.0
 31
0.0
 44
0.9
  1
\Q15.0;GNS36
 40
5.0
 41
22.7777777778
  0
MTEXT
  5
2B2
100
AcDbEntity
  8
0
100
AcDbMText
 62
5
  6
CONTINUOUS
  7
STANDARD
 71
1
 72
1
 10
160.0471583867
 20
236.2959174754
 30
0.0
 11
1.0
 21
0.0
 31
0.0
 44
0.9
  1
\Q15.0;NC3FX-Spec
 40
3.5
 41
26.8333333333
  0
MTEXT
  5
2B3
100
AcDbEntity
  8
0
100
AcDbMText
 62
5
  6
CONTINUOUS
  7
STANDARD
 71
1
 72
1
 10
159.9135002008
 20
172.5497691488
 30
0.0
 11
1.0
 21
0.0
 31
0.0
 44
0.9
  1
\Q15.0;Cable outlet
 40
3.5
 41
28.8333333333
  0
MTEXT
  5
2B4
100
AcDbEntity
  8
0
100
AcDbMText
 62
5
  6
CONTINUOUS
  7
STANDARD
 71
1
 72
1
 10
159.8986027412
 20
129.6978754091
 30
0.0
 11
1.0
 21
0.0
 31
0.0
 44
0.9
  1
\Q15.0;NAM5
 40
3.5
 41
11.9166666667
  0
MTEXT
  5
2B5
100
AcDbEntity
  8
0
100
AcDbMText
 62
5
  6
CONTINUOUS
  7
STANDARD
 71
1
 72
1
 10
159.8780972688
 20
87.282224277
 30
0.0
 11
1.0
 21
0.0
 31
0.0
 44
0.9
  1
\Q15.0;M17x1 bolt
 40
3.5
 41
24.4166666667
  0
MTEXT
  5
2B6
100
AcDbEntity
  8
0
100
AcDbMText
 62
5
  6
CONTINUOUS
  7
STANDARD
 71
1
 72
1
 10
54.7251099067
 20
110.158829635
 30
0.0
 11
1.0
 21
0.0
 31
0.0
 44
0.9
  1
\Q15.0;M1:2
 40
3.5
 41
9.6666666667
  0
MTEXT
  5
2B7
100
AcDbEntity
  8
0
100
AcDbMText
 62
5
  6
CONTINUOUS
  7
STANDARD
 71
1
 72
1
 10
123.1269646709
 20
59.1596727837
 30
0.0
 11
1.0
 21
0.0
 31
0.0
 44
0.9
  1
\Q15.0;M1:1
 40
3.5
 41
8.9166666667
  0
MTEXT
  5
2B8
100
AcDbEntity
  8
0
100
AcDbMText
 62
5
  6
CONTINUOUS
  7
TEXTSTYLE_4
 71
2
 72
1
 10
38.5448601289
 20
174.6793876953
 30
0.0
 11
1.0
 21
0.0
 31
0.0
 44
1.0000002
  1
\Q15.0;{\Fgdt;n}\Ftxt;13.0 [0.512"]
 40
3.5
 41
33.9166666667
  0
MTEXT
  5
2B9
100
AcDbEntity
  8
0
100
AcDbMText
 62
5
  6
CONTINUOUS
  7
STANDARD
 71
2
 72
1
 10
74.8356146609
 20
178.3130721584
 30
0.0
 11
0.0
 21
1.0
 31
0.0
 44
1.0000002
  1
\Q15.0;360.0 [14.173"]
 40
3.5
 41
34.75
  0
MTEXT
  5
2BA
100
AcDbEntity
  8
0
100
AcDbMText
 62
5
  6
CONTINUOUS
  7
STANDARD
 71
2
 72
1
 10
42.9739834505
 20
145.499762338
 30
0.0
 11
0.0
 21
1.0
 31
0.0
 44
1.0000002
  1
\Q15.0;35.0 [1.378"]
 40
3.5
 41
29.75
  0
MTEXT
  5
2BB
100
AcDbEntity
  8
0
100
AcDbMText
 62
5
  6
CONTINUOUS
  7
STANDARD
 71
2
 72
1
 10
128.5171952013
 20
107.6088899349
 30
0.0
 11
1.0
 21
0.0
 31
0.0
 44
1.0000002
  1
\Q15.0;3/8"
 40
3.5
 41
10.1666666667
  0
MTEXT
  5
2BC
100
AcDbEntity
  8
0
100
AcDbMText
 62
5
  6
CONTINUOUS
  7
STANDARD
 71
2
 72
1
 10
127.8011306625
 20
71.2727163104
 30
0.0
 11
1.0
 21
0.0
 31
0.0
 44
1.0000002
  1
\Q15.0;M17x1
 40
3.5
 41
12.25
  0
MTEXT
  5
2BD
100
AcDbEntity
  8
025
100
AcDbMText
 62
5
  6
CONTINUOUS
  7
STANDARD
 71
1
 72
1
 10
121.6014997623
 20
116.5409358428
 30
0.0
 11
1.0
 21
0.0
 31
0.0
 44
0.9
  1
\Q15.0;3/8"
 40
3.5
 41
10.8333333333
  0
MTEXT
  5
2BE
100
AcDbEntity
  8
0
100
AcDbMText
 62
5
  6
CONTINUOUS
  7
STANDARD
 71
2
 72
1
 10
127.8011306625
 20
213.5944167867
 30
0.0
 11
1.0
 21
0.0
 31
0.0
 44
1.0000002
  1
\Q15.0;M17x1
 40
3.5
 41
12.25
  0
MTEXT
  5
2BF
100
AcDbEntity
  8
0
100
AcDbMText
 62
5
  6
CONTINUOUS
  7
STANDARD
 71
2
 72
1
 10
127.9203978113
 20
199.3247324251
 30
0.0
 11
1.0
 21
0.0
 31
0.0
 44
1.0000002
  1
\Q15.0;M17x1
 40
3.5
 41
12.25
  0
MTEXT
  5
2C0
100
AcDbEntity
  8
0
100
AcDbMText
 62
5
  6
CONTINUOUS
  7
STANDARD
 71
2
 72
1
 10
128.4888334135
 20
146.6528623397
 30
0.0
 11
1.0
 21
0.0
 31
0.0
 44
1.0000002
  1
\Q15.0;5/8"
 40
3.5
 41
10.1666666667
  0
LINE
  5
2C1
100
AcDbEntity
  8
0
100
AcDbLine
 62
7
  6
CONTINUOUS
 10
0.0
 20
0.0
 11
210.0
 21
0.0
  0
LINE
  5
2C2
100
AcDbEntity
  8
0
100
AcDbLine
 62
7
  6
CONTINUOUS
 10
5.0
 20
5.0
 11
205.0
 21
5.0
  0
LINE
  5
2C3
100
AcDbEntity
  8
0
100
AcDbLine
 62
7
  6
CONTINUOUS
 10
0.0
 20
0.0
 11
0.0
 21
297.0
  0
LINE
  5
2C4
100
AcDbEntity
  8
0
100
AcDbLine
 62
7
  6
CONTINUOUS
 10
5.0
 20
5.0
 11
5.0
 21
292.0
  0
LINE
  5
2C5
100
AcDbEntity
  8
035
100
AcDbLine
 62
7
  6
CONTINUOUS
 10
54.8393422832
 20
234.1340110746
 11
55.3841929583
 21
235.0777201265
  0
LINE
  5
2C6
100
AcDbEntity
  8
05
100
AcDbLine
 62
7
  6
CONTINUOUS
 10
53.3216929583
 20
231.5719274492
 11
53.0216929583
 21
231.2719274492
  0
LINE
  5
2C7
100
AcDbEntity
  8
SCHRAFFIERT
100
AcDbLine
 62
2
  6
CONTINUOUS
 10
55.121695288
 20
219.4998154092
 11
55.316695288
 21
219.6123987117
  0
LINE
  5
2C8
100
AcDbEntity
  8
SCHRAFFIERT
100
AcDbLine
 62
2
  6
CONTINUOUS
 10
63.696695288
 20
223.1343453554
 11
63.596695288
 21
223.0343453554
  0
LINE
  5
2C9
100
AcDbEntity
  8
SCHRAFFIERT
100
AcDbLine
 62
2
  6
CONTINUOUS
 10
63.596695288
 20
219.8823987117
 11
63.326695288
 21
219.6123987117
  0
LINE
  5
2CA
100
AcDbEntity
  8
SCHRAFFIERT
100
AcDbLine
 62
2
  6
CONTINUOUS
 10
62.571695288
 20
217.8843453554
 11
61.321695288
 21
216.6343453554
  0
LINE
  5
2CB
100
AcDbEntity
  8
SCHRAFFIERT
100
AcDbLine
 62
2
  6
CONTINUOUS
 10
56.5037947918
 20
214.6724932548
 11
57.321695288
 21
215.1447083265
  0
LINE
  5
2CC
100
AcDbEntity
  8
SCHRAFFIERT
100
AcDbLine
 62
2
  6
CONTINUOUS
 10
54.571695288
 20
215.7451540718
 11
54.5760566177
 21
215.5786016106
  0
LINE
  5
2CD
100
AcDbEntity
  8
SCHRAFFIERT
100
AcDbLine
 62
2
  6
CONTINUOUS
 10
54.571695288
 20
223.1343453554
 11
54.571695288
 21
215.7451540718
  0
LINE
  5
2CE
100
AcDbEntity
  8
SCHRAFFIERT
100
AcDbLine
 62
2
  6
CONTINUOUS
 10
54.921695288
 20
218.2843453554
 11
54.921695288
 21
219.1534052477
  0
LINE
  5
2CF
100
AcDbEntity
  8
SCHRAFFIERT
100
AcDbLine
 62
2
  6
CONTINUOUS
 10
55.046695288
 20
219.8823987117
 11
55.046695288
 21
219.4438789987
  0
LINE
  5
2D0
100
AcDbEntity
  8
SCHRAFFIERT
100
AcDbLine
 62
2
  6
CONTINUOUS
 10
55.046695288
 20
219.4438789987
 11
55.046695288
 21
219.8823987117
  0
LINE
  5
2D1
100
AcDbEntity
  8
SCHRAFFIERT
100
AcDbLine
 62
2
  6
CONTINUOUS
 10
55.046695288
 20
219.8823987117
 11
55.046695288
 21
221.7343453554
  0
LINE
  5
2D2
100
AcDbEntity
  8
SCHRAFFIERT
100
AcDbLine
 62
2
  6
CONTINUOUS
 10
55.046695288
 20
221.7343453554
 11
55.046695288
 21
223.0343453554
  0
LINE
  5
2D3
100
AcDbEntity
  8
SCHRAFFIERT
100
AcDbLine
 62
2
  6
CONTINUOUS
 10
57.321695288
 20
215.1447083265
 11
57.321695288
 21
216.6343453554
  0
LINE
  5
2D4
100
AcDbEntity
  8
SCHRAFFIERT
100
AcDbLine
 62
2
  6
CONTINUOUS
 10
54.5760566177
 20
215.5786016106
 11
54.6170847247
 21
214.7957386921
  0
LINE
  5
2D5
100
AcDbEntity
  8
SCHRAFFIERT
100
AcDbLine
 62
2
  6
CONTINUOUS
 10
61.321695288
 20
216.6343453554
 11
61.321695288
 21
215.1447083265
  0
LINE
  5
2D6
100
AcDbEntity
  8
SCHRAFFIERT
100
AcDbLine
 62
2
  6
CONTINUOUS
 10
63.596695288
 20
223.0343453554
 11
63.596695288
 21
221.7343453554
  0
LINE
  5
2D7
100
AcDbEntity
  8
SCHRAFFIERT
100
AcDbLine
 62
2
  6
CONTINUOUS
 10
63.596695288
 20
221.7343453554
 11
63.596695288
 21
219.8823987117
  0
LINE
  5
2D8
100
AcDbEntity
  8
SCHRAFFIERT
100
AcDbLine
 62
2
  6
CONTINUOUS
 10
63.596695288
 20
219.8823987117
 11
63.596695288
 21
219.4438789987
  0
LINE
  5
2D9
100
AcDbEntity
  8
SCHRAFFIERT
100
AcDbLine
 62
2
  6
CONTINUOUS
 10
63.596695288
 20
219.4438789987
 11
63.596695288
 21
219.8823987117
  0
LINE
  5
2DA
100
AcDbEntity
  8
SCHRAFFIERT
100
AcDbLine
 62
2
  6
CONTINUOUS
 10
63.721695288
 20
219.1534052477
 11
63.721695288
 21
218.2843453554
  0
LINE
  5
2DB
100
AcDbEntity
  8
SCHRAFFIERT
100
AcDbLine
 62
2
  6
CONTINUOUS
 10
64.071695288
 20
215.6618207385
 11
64.071695288
 21
223.1343453554
  0
LINE
  5
2DC
100
AcDbEntity
  8
SCHRAFFIERT
100
AcDbLine
 62
2
  6
CONTINUOUS
 10
64.0062711221
 20
214.4134532857
 11
64.071695288
 21
215.6618207385
  0
LINE
  5
2DD
100
AcDbEntity
  8
SCHRAFFIERT
100
AcDbLine
 62
2
  6
CONTINUOUS
 10
57.321695288
 20
216.6343453554
 11
56.071695288
 21
217.8843453554
  0
LINE
  5
2DE
100
AcDbEntity
  8
SCHRAFFIERT
100
AcDbLine
 62
2
  6
CONTINUOUS
 10
55.316695288
 20
219.6123987117
 11
55.046695288
 21
219.8823987117
  0
LINE
  5
2DF
100
AcDbEntity
  8
SCHRAFFIERT
100
AcDbLine
 62
2
  6
CONTINUOUS
 10
55.046695288
 20
223.0343453554
 11
54.946695288
 21
223.1343453554
  0
LINE
  5
2E0
100
AcDbEntity
  8
SCHRAFFIERT
100
AcDbLine
 62
2
  6
CONTINUOUS
 10
61.321695288
 20
215.1447083265
 11
62.2813062423
 21
214.5906766837
  0
LINE
  5
2E1
100
AcDbEntity
  8
SCHRAFFIERT
100
AcDbLine
 62
2
  6
CONTINUOUS
 10
55.8530049833
 20
214.9304497637
 11
56.5037947918
 21
214.6724932548
  0
LINE
  5
2E2
100
AcDbEntity
  8
SCHRAFFIERT
100
AcDbLine
 62
2
  6
CONTINUOUS
 10
63.326695288
 20
219.6123987117
 11
63.521695288
 21
219.4998154092
  0
LINE
  5
2E3
100
AcDbEntity
  8
SCHRAFFIERT
100
AcDbLine
 62
2
  6
CONTINUOUS
 10
62.2813062423
 20
214.5906766837
 11
64.0062711221
 21
214.4134532857
  0
LINE
  5
2E4
100
AcDbEntity
  8
SCHRAFFIERT
100
AcDbLine
 62
2
  6
CONTINUOUS
 10
54.6170847247
 20
214.7957386921
 11
55.8530049833
 21
214.9304497637
  0
LINE
  5
2E5
100
AcDbEntity
  8
SCHRAFFIERT
100
AcDbLine
 62
2
  6
CONTINUOUS
 10
63.321695288
 20
217.8843453554
 11
62.571695288
 21
217.8843453554
  0
LINE
  5
2E6
100
AcDbEntity
  8
SCHRAFFIERT
100
AcDbLine
 62
2
  6
CONTINUOUS
 10
56.071695288
 20
217.8843453554
 11
55.321695288
 21
217.8843453554
  0
LINE
  5
2E7
100
AcDbEntity
  8
SCHRAFFIERT
100
AcDbLine
 62
2
  6
CONTINUOUS
 10
64.071695288
 20
223.1343453554
 11
63.696695288
 21
223.1343453554
  0
LINE
  5
2E8
100
AcDbEntity
  8
SCHRAFFIERT
100
AcDbLine
 62
2
  6
CONTINUOUS
 10
54.946695288
 20
223.1343453554
 11
54.571695288
 21
223.1343453554
  0
ARC
  5
2E9
100
AcDbEntity
  8
SCHRAFFIERT
100
AcDbCircle
 62
2
  6
CONTINUOUS
 10
55.321695288
 20
218.2843453554
 40
0.4
100
AcDbArc
 50
180.0
 51
270.0
  0
ARC
  5
2EA
100
AcDbEntity
  8
SCHRAFFIERT
100
AcDbCircle
 62
2
  6
CONTINUOUS
 10
55.321695288
 20
219.1534052477
 40
0.4
100
AcDbArc
 50
133.4325365578
 51
180.0
  0
ARC
  5
2EB
100
AcDbEntity
  8
SCHRAFFIERT
100
AcDbCircle
 62
2
  6
CONTINUOUS
 10
55.321695288
 20
219.1534052477
 40
0.4
100
AcDbArc
 50
120.0
 51
133.4325365578
  0
ARC
  5
2EC
100
AcDbEntity
  8
SCHRAFFIERT
100
AcDbCircle
 62
2
  6
CONTINUOUS
 10
63.321695288
 20
219.1534052477
 40
0.4
100
AcDbArc
 50
46.5674634422
 51
60.0
  0
ARC
  5
2ED
100
AcDbEntity
  8
SCHRAFFIERT
100
AcDbCircle
 62
2
  6
CONTINUOUS
 10
63.321695288
 20
219.1534052477
 40
0.4
100
AcDbArc
 50
0.0
 51
46.5674634422
  0
ARC
  5
2EE
100
AcDbEntity
  8
SCHRAFFIERT
100
AcDbCircle
 62
2
  6
CONTINUOUS
 10
63.321695288
 20
218.2843453554
 40
0.4
100
AcDbArc
 50
270.0
 51
360.0
  0
HATCH
  5
2EF
100
AcDbEntity
  8
SCHRAFFIERT
100
AcDbHatch
 62
4
  6
CONTINUOUS
 10
0.0
 20
0.0
 30
0.0
210
0.0
220
0.0
230
1.0
  2
ANSI31
 70
0
 71
1
 91
1
 92
1
 93
17
 72
2
 10
63.321695288
 20
219.1534052477
 40
0.4
 50
0.0
 51
46.5674634422
 73
1
 72
1
 10
63.721695288
 20
219.1534052477
 11
63.721695288
 21
218.2843453554
 72
2
 10
63.321695288
 20
218.2843453554
 40
0.4
 50
270.0
 51
360.0
 73
1
 72
1
 10
63.321695288
 20
217.8843453554
 11
62.571695288
 21
217.8843453554
 72
1
 10
62.571695288
 20
217.8843453554
 11
61.321695288
 21
216.6343453554
 72
1
 10
61.321695288
 20
216.6343453554
 11
61.321695288
 21
215.1447083265
 72
1
 10
61.321695288
 20
215.1447083265
 11
62.2813062423
 21
214.5906766837
 72
1
 10
62.2813062423
 20
214.5906766837
 11
64.0062711221
 21
214.4134532857
 72
1
 10
64.0062711221
 20
214.4134532857
 11
64.071695288
 21
215.6618207385
 72
1
 10
64.071695288
 20
215.6618207385
 11
64.071695288
 21
223.1343453554
 72
1
 10
64.071695288
 20
223.1343453554
 11
63.696695288
 21
223.1343453554
 72
1
 10
63.696695288
 20
223.1343453554
 11
63.596695288
 21
223.0343453554
 72
1
 10
63.596695288
 20
223.0343453554
 11
63.596695288
 21
221.7343453554
 72
1
 10
63.596695288
 20
221.7343453554
 11
63.596695288
 21
219.8823987117
 72
1
 10
63.596695288
 20
219.8823987117
 11
63.326695288
 21
219.6123987117
 72
1
 10
63.326695288
 20
219.6123987117
 11
63.521695288
 21
219.4998154092
 72
1
 10
63.596695288
 20
219.4438789987
 11
63.521695288
 21
219.4998154092
 97
40
330
2C7
330
2C8
330
2C9
330
2CA
330
2CB
330
2CC
330
2CD
330
2CE
330
2CF
330
2D0
330
2D1
330
2D2
330
2D3
330
2D4
330
2D5
330
2D6
330
2D7
330
2D8
330
2D9
330
2DA
330
2DB
330
2DC
330
2DD
330
2DE
330
2DF
330
2E0
330
2E1
330
2E2
330
2E3
330
2E4
330
2E5
330
2E6
330
2E7
330
2E8
330
2E9
330
2EA
330
2EB
330
2EC
330
2ED
330
2EE
 75
0
 76
0
 52
45.0
 41
0.625
 77
0
 78
1
 53
45.0
 43
-3.262414765
 44
3.262414765
 45
-0.4419417382
 46
0.4419417382
 79
0
 98
1
 10
0.0
 20
0.0
  0
LINE
  5
2F0
100
AcDbEntity
  8
05
100
AcDbLine
 62
7
  6
CONTINUOUS
 10
55.1216929583
 20
219.4998152128
 11
55.3166929583
 21
219.6123985153
  0
LINE
  5
2F1
100
AcDbEntity
  8
0
100
AcDbLine
 62
2
  6
CONTINUOUS
 10
132.8021248146
 20
66.4511162928
 11
136.3021248146
 21
67.0344496262
  0
LINE
  5
2F2
100
AcDbEntity
  8
0
100
AcDbLine
 62
2
  6
CONTINUOUS
 10
136.3021248146
 20
67.0344496262
 11
132.8021248146
 21
67.6177829595
  0
LINE
  5
2F3
100
AcDbEntity
  8
0
100
AcDbLine
 62
2
  6
CONTINUOUS
 10
132.8021248146
 20
67.6177829595
 11
132.8021248146
 21
66.4511162928
  0
HATCH
  5
2F4
100
AcDbEntity
  8
0
100
AcDbHatch
 62
2
  6
CONTINUOUS
 10
0.0
 20
0.0
 30
0.0
210
0.0
220
0.0
230
1.0
  2

 70
1
 71
1
 91
1
 92
1
 93
3
 72
1
 10
136.3021248146
 20
67.0344496262
 11
132.8021248146
 21
67.6177829595
 72
1
 10
132.8021248146
 20
67.6177829595
 11
132.8021248146
 21
66.4511162928
 72
1
 10
132.8021248146
 20
66.4511162928
 11
136.3021248146
 21
67.0344496262
 97
3
330
2F1
330
2F2
330
2F3
 75
0
 76
1
 98
1
 10
0.0
 20
0.0
  0
LINE
  5
2F5
100
AcDbEntity
  8
05
100
AcDbLine
 62
7
  6
CONTINUOUS
 10
65.6216929583
 20
227.8719274492
 11
65.3216929583
 21
227.5719274492
  0
LINE
  5
2F6
100
AcDbEntity
  8
05
100
AcDbLine
 62
7
  6
CONTINUOUS
 10
63.6966929583
 20
223.134345159
 11
63.5966929583
 21
223.034345159
  0
LINE
  5
2F7
100
AcDbEntity
  8
05
100
AcDbLine
 62
7
  6
CONTINUOUS
 10
63.3266929583
 20
219.6123985153
 11
63.5966929583
 21
219.8823985153
  0
LINE
  5
2F8
100
AcDbEntity
  8
05
100
AcDbLine
 62
7
  6
CONTINUOUS
 10
61.3216929583
 20
216.634345159
 11
62.5716929583
 21
217.884345159
  0
LINE
  5
2F9
100
AcDbEntity
  8
05
100
AcDbLine
 62
7
  6
CONTINUOUS
 10
56.5037924621
 20
214.6724930584
 11
57.3216929583
 21
215.14470813
  0
LINE
  5
2FA
100
AcDbEntity
  8
0
100
AcDbLine
 62
2
  6
CONTINUOUS
 10
119.3001365105
 20
67.0344496262
 11
122.8001365105
 21
67.6177829595
  0
LINE
  5
2FB
100
AcDbEntity
  8
0
100
AcDbLine
 62
2
  6
CONTINUOUS
 10
122.8001365105
 20
66.4511162928
 11
119.3001365105
 21
67.0344496262
  0
LINE
  5
2FC
100
AcDbEntity
  8
0
100
AcDbLine
 62
2
  6
CONTINUOUS
 10
122.8001365105
 20
67.6177829595
 11
122.8001365105
 21
66.4511162928
  0
HATCH
  5
2FD
100
AcDbEntity
  8
0
100
AcDbHatch
 62
2
  6
CONTINUOUS
 10
0.0
 20
0.0
 30
0.0
210
0.0
220
0.0
230
1.0
  2

 70
1
 71
1
 91
1
 92
1
 93
3
 72
1
 10
122.8001365105
 20
67.6177829595
 11
122.8001365105
 21
66.4511162928
 72
1
 10
122.8001365105
 20
66.4511162928
 11
119.3001365105
 21
67.0344496262
 72
1
 10
119.3001365105
 20
67.0344496262
 11
122.8001365105
 21
67.6177829595
 97
3
330
2FA
330
2FB
330
2FC
 75
0
 76
1
 98
1
 10
0.0
 20
0.0
  0
LINE
  5
2FE
100
AcDbEntity
  8
0
100
AcDbLine
 62
2
  6
CONTINUOUS
 10
122.8001365105
 20
67.0344496262
 11
132.8021248146
 21
67.0344496262
  0
LINE
  5
2FF
100
AcDbEntity
  8
05
100
AcDbLine
 62
7
  6
CONTINUOUS
 10
115.8011306625
 20
244.5303720636
 11
115.2011306625
 21
243.9303720636
  0
LINE
  5
300
100
AcDbEntity
  8
07
100
AcDbLine
 62
7
  6
CONTINUOUS
 10
135.7020546391
 20
77.6516888592
 11
119.9002066859
 21
77.6516888592
  0
LINE
  5
301
100
AcDbEntity
  8
025
100
AcDbLine
 62
2
  6
CONTINUOUS
 10
136.3021248146
 20
78.2517590346
 11
119.3001365105
 21
78.2517590346
  0
LINE
  5
302
100
AcDbEntity
  8
025
100
AcDbLine
 62
2
  6
CONTINUOUS
 10
119.3001365105
 20
87.0527882744
 11
136.3021248146
 21
87.0527882744
  0
LINE
  5
303
100
AcDbEntity
  8
07
100
AcDbLine
 62
7
  6
CONTINUOUS
 10
135.7020546391
 20
87.6528584498
 11
119.9002066859
 21
87.6528584498
  0
LINE
  5
304
100
AcDbEntity
  8
05
100
AcDbLine
 62
7
  6
CONTINUOUS
 10
54.576054288
 20
215.5786014141
 11
54.5716929583
 21
215.7451538754
  0
LINE
  5
305
100
AcDbEntity
  8
0
100
AcDbLine
 62
2
  6
CONTINUOUS
 10
47.9423190292
 20
159.5758821081
 11
47.9423190292
 21
131.2965957459
  0
LINE
  5
306
100
AcDbEntity
  8
0
100
AcDbLine
 62
2
  6
CONTINUOUS
 10
52.5730638924
 20
170.4766839701
 11
52.5730638924
 21
169.3100173034
  0
LINE
  5
307
100
AcDbEntity
  8
0
100
AcDbLine
 62
2
  6
CONTINUOUS
 10
56.0730638924
 20
169.8933506368
 11
52.5730638924
 21
170.4766839701
  0
LINE
  5
308
100
AcDbEntity
  8
0
100
AcDbLine
 62
2
  6
CONTINUOUS
 10
52.5730638924
 20
169.3100173034
 11
56.0730638924
 21
169.8933506368
  0
HATCH
  5
309
100
AcDbEntity
  8
0
100
AcDbHatch
 62
2
  6
CONTINUOUS
 10
0.0
 20
0.0
 30
0.0
210
0.0
220
0.0
230
1.0
  2

 70
1
 71
1
 91
1
 92
1
 93
3
 72
1
 10
52.5730638924
 20
169.3100173034
 11
56.0730638924
 21
169.8933506368
 72
1
 10
56.0730638924
 20
169.8933506368
 11
52.5730638924
 21
170.4766839701
 72
1
 10
52.5730638924
 20
170.4766839701
 11
52.5730638924
 21
169.3100173034
 97
3
330
306
330
307
330
308
 75
0
 76
1
 98
1
 10
0.0
 20
0.0
  0
LINE
  5
30A
100
AcDbEntity
  8
05
100
AcDbLine
 62
7
  6
CONTINUOUS
 10
53.0216929583
 20
227.8719274492
 11
53.0216929583
 21
231.2719274492
  0
LINE
  5
30B
100
AcDbEntity
  8
SCHRAFFIERT
100
AcDbLine
 62
2
  6
CONTINUOUS
 10
53.1466929583
 20
231.3969274492
 11
53.1466929583
 21
227.7469274492
  0
LINE
  5
30C
100
AcDbEntity
  8
05
100
AcDbLine
 62
7
  6
CONTINUOUS
 10
53.3216929583
 20
225.9719274492
 11
53.3216929583
 21
227.5719274492
  0
LINE
  5
30D
100
AcDbEntity
  8
05
100
AcDbLine
 62
7
  6
CONTINUOUS
 10
53.3216929583
 20
231.5719274492
 11
53.3216929583
 21
232.6719274492
  0
LINE
  5
30E
100
AcDbEntity
  8
SCHRAFFIERT
100
AcDbLine
 62
2
  6
CONTINUOUS
 10
53.3966929583
 20
231.5719274492
 11
53.3966929583
 21
227.5719274492
  0
LINE
  5
30F
100
AcDbEntity
  8
SCHRAFFIERT
100
AcDbLine
 62
2
  6
CONTINUOUS
 10
53.7466929583
 20
231.5719274492
 11
53.7466929583
 21
227.5719274492
  0
LINE
  5
310
100
AcDbEntity
  8
SCHRAFFIERT
100
AcDbLine
 62
2
  6
CONTINUOUS
 10
54.2466929583
 20
231.5719274492
 11
54.2466929583
 21
227.5719274492
  0
LINE
  5
311
100
AcDbEntity
  8
07
100
AcDbLine
 62
7
  6
CONTINUOUS
 10
54.5711374028
 20
136.3109529605
 11
54.5711374028
 21
125.7088184575
  0
LINE
  5
312
100
AcDbEntity
  8
05
100
AcDbLine
 62
7
  6
CONTINUOUS
 10
54.5716929583
 20
223.134345159
 11
54.5716929583
 21
215.7451538754
  0
LINE
  5
313
100
AcDbEntity
  8
05
100
AcDbLine
 62
7
  6
CONTINUOUS
 10
54.5716929583
 20
136.5609822002
 11
54.5716929583
 21
143.9501734838
  0
LINE
  5
314
100
AcDbEntity
  8
05
100
AcDbLine
 62
7
  6
CONTINUOUS
 10
54.5716930058
 20
223.3843451565
 11
54.5716930058
 21
225.5527047294
  0
LINE
  5
315
100
AcDbEntity
  8
035
100
AcDbLine
 62
7
  6
CONTINUOUS
 10
54.8393422832
 20
234.1340110746
 11
54.8393422832
 21
233.9340110746
  0
LINE
  5
316
100
AcDbEntity
  8
SCHRAFFIERT
100
AcDbLine
 62
2
  6
CONTINUOUS
 10
54.8466929583
 20
231.5719274492
 11
54.8466929583
 21
227.5719274492
  0
LINE
  5
317
100
AcDbEntity
  8
05
100
AcDbLine
 62
7
  6
CONTINUOUS
 10
54.9216929583
 20
219.1534050513
 11
54.9216929583
 21
218.284345159
  0
LINE
  5
318
100
AcDbEntity
  8
010
100
AcDbLine
 62
2
  6
CONTINUOUS
 10
55.0466929583
 20
219.8823985153
 11
55.0466929583
 21
219.4438788022
  0
LINE
  5
319
100
AcDbEntity
  8
05
100
AcDbLine
 62
7
  6
CONTINUOUS
 10
55.0466929583
 20
219.8823985153
 11
55.0466929583
 21
223.134345159
  0
LINE
  5
31A
100
AcDbEntity
  8
07
100
AcDbLine
 62
7
  6
CONTINUOUS
 10
55.0711958823
 20
120.8591459429
 11
55.0711958823
 21
125.2596605628
  0
LINE
  5
31B
100
AcDbEntity
  8
010
100
AcDbLine
 62
2
  6
CONTINUOUS
 10
55.3166929583
 20
221.734345159
 11
55.3166929583
 21
219.6123985153
  0
LINE
  5
31C
100
AcDbEntity
  8
010
100
AcDbLine
 62
2
  6
CONTINUOUS
 10
55.346228046
 20
120.5841137792
 11
55.346228046
 21
125.5346927266
  0
LINE
  5
31D
100
AcDbEntity
  8
05
100
AcDbLine
 62
7
  6
CONTINUOUS
 10
55.3841929583
 20
233.5974487895
 11
55.3841929583
 21
239.134345159
  0
LINE
  5
31E
100
AcDbEntity
  8
SCHRAFFIERT
100
AcDbLine
 62
2
  6
CONTINUOUS
 10
55.6466929583
 20
231.5719274492
 11
55.6466929583
 21
227.5719274492
  0
LINE
  5
31F
100
AcDbEntity
  8
025
100
AcDbLine
 62
2
  6
CONTINUOUS
 10
56.0730638924
 20
205.3193572614
 11
56.0730638924
 21
204.3007193339
  0
LINE
  5
320
100
AcDbEntity
  8
025
100
AcDbLine
 62
2
  6
CONTINUOUS
 10
56.0730638924
 20
203.8051657476
 11
56.0730638924
 21
202.7865278202
  0
LINE
  5
321
100
AcDbEntity
  8
025
100
AcDbLine
 62
2
  6
CONTINUOUS
 10
56.0730638924
 20
202.2909742338
 11
56.0730638924
 21
201.2723363064
  0
LINE
  5
322
100
AcDbEntity
  8
025
100
AcDbLine
 62
2
  6
CONTINUOUS
 10
56.0730638924
 20
200.7767827201
 11
56.0730638924
 21
199.7581447926
  0
LINE
  5
323
100
AcDbEntity
  8
025
100
AcDbLine
 62
2
  6
CONTINUOUS
 10
56.0730638924
 20
199.2625912063
 11
56.0730638924
 21
198.2439532789
  0
LINE
  5
324
100
AcDbEntity
  8
025
100
AcDbLine
 62
2
  6
CONTINUOUS
 10
56.0730638924
 20
197.7483996926
 11
56.0730638924
 21
196.7297617651
  0
LINE
  5
325
100
AcDbEntity
  8
025
100
AcDbLine
 62
2
  6
CONTINUOUS
 10
56.0730638924
 20
196.2342081788
 11
56.0730638924
 21
195.2155702514
  0
LINE
  5
326
100
AcDbEntity
  8
025
100
AcDbLine
 62
2
  6
CONTINUOUS
 10
56.0730638924
 20
194.720016665
 11
56.0730638924
 21
193.7013787376
  0
LINE
  5
327
100
AcDbEntity
  8
025
100
AcDbLine
 62
2
  6
CONTINUOUS
 10
56.0730638924
 20
193.2058251513
 11
56.0730638924
 21
192.1871872238
  0
LINE
  5
328
100
AcDbEntity
  8
025
100
AcDbLine
 62
2
  6
CONTINUOUS
 10
56.0730638924
 20
191.6916336375
 11
56.0730638924
 21
190.6729957101
  0
LINE
  5
329
100
AcDbEntity
  8
025
100
AcDbLine
 62
2
  6
CONTINUOUS
 10
56.0730638924
 20
190.1774421238
 11
56.0730638924
 21
189.1588041963
  0
LINE
  5
32A
100
AcDbEntity
  8
025
100
AcDbLine
 62
2
  6
CONTINUOUS
 10
56.0730638924
 20
188.66325061
 11
56.0730638924
 21
187.6446126826
  0
LINE
  5
32B
100
AcDbEntity
  8
025
100
AcDbLine
 62
2
  6
CONTINUOUS
 10
56.0730638924
 20
187.1490590962
 11
56.0730638924
 21
186.1304211688
  0
LINE
  5
32C
100
AcDbEntity
  8
025
100
AcDbLine
 62
2
  6
CONTINUOUS
 10
56.0730638924
 20
185.6348675825
 11
56.0730638924
 21
184.616229655
  0
LINE
  5
32D
100
AcDbEntity
  8
025
100
AcDbLine
 62
2
  6
CONTINUOUS
 10
56.0730638924
 20
184.1206760687
 11
56.0730638924
 21
183.1020381413
  0
LINE
  5
32E
100
AcDbEntity
  8
025
100
AcDbLine
 62
2
  6
CONTINUOUS
 10
56.0730638924
 20
181.6919489434
 11
56.0730638924
 21
181.5878466275
  0
LINE
  5
32F
100
AcDbEntity
  8
025
100
AcDbLine
 62
2
  6
CONTINUOUS
 10
56.0730638924
 20
181.0922930412
 11
56.0730638924
 21
180.0736551137
  0
LINE
  5
330
100
AcDbEntity
  8
025
100
AcDbLine
 62
2
  6
CONTINUOUS
 10
56.0730638924
 20
179.5781015274
 11
56.0730638924
 21
178.5594636
  0
LINE
  5
331
100
AcDbEntity
  8
025
100
AcDbLine
 62
2
  6
CONTINUOUS
 10
56.0730638924
 20
178.0639100137
 11
56.0730638924
 21
177.0452720862
  0
LINE
  5
332
100
AcDbEntity
  8
025
100
AcDbLine
 62
2
  6
CONTINUOUS
 10
56.0730638924
 20
176.5497184999
 11
56.0730638924
 21
175.5310805725
  0
LINE
  5
333
100
AcDbEntity
  8
025
100
AcDbLine
 62
2
  6
CONTINUOUS
 10
56.0730638924
 20
175.0355269861
 11
56.0730638924
 21
174.0168890587
  0
LINE
  5
334
100
AcDbEntity
  8
025
100
AcDbLine
 62
2
  6
CONTINUOUS
 10
56.0730638924
 20
173.5213354724
 11
56.0730638924
 21
172.5026975449
  0
LINE
  5
335
100
AcDbEntity
  8
025
100
AcDbLine
 62
2
  6
CONTINUOUS
 10
56.0730638924
 20
172.0071439586
 11
56.0730638924
 21
170.9885060312
  0
LINE
  5
336
100
AcDbEntity
  8
025
100
AcDbLine
 62
2
  6
CONTINUOUS
 10
56.0730638924
 20
170.4929524449
 11
56.0730638924
 21
169.4743145174
  0
LINE
  5
337
100
AcDbEntity
  8
025
100
AcDbLine
 62
2
  6
CONTINUOUS
 10
56.0730638924
 20
168.9787609311
 11
56.0730638924
 21
167.9601230037
  0
LINE
  5
338
100
AcDbEntity
  8
025
100
AcDbLine
 62
2
  6
CONTINUOUS
 10
56.0730638924
 20
167.4645694173
 11
56.0730638924
 21
166.4459314899
  0
LINE
  5
339
100
AcDbEntity
  8
025
100
AcDbLine
 62
2
  6
CONTINUOUS
 10
56.0730638924
 20
165.9503779036
 11
56.0730638924
 21
164.9317399761
  0
LINE
  5
33A
100
AcDbEntity
  8
025
100
AcDbLine
 62
2
  6
CONTINUOUS
 10
56.0730638924
 20
164.4361863898
 11
56.0730638924
 21
163.4175484624
  0
LINE
  5
33B
100
AcDbEntity
  8
025
100
AcDbLine
 62
2
  6
CONTINUOUS
 10
56.0730638924
 20
162.921994876
 11
56.0730638924
 21
161.9033569486
  0
LINE
  5
33C
100
AcDbEntity
  8
025
100
AcDbLine
 62
2
  6
CONTINUOUS
 10
56.0730638924
 20
161.4078033623
 11
56.0730638924
 21
160.3891654348
  0
LINE
  5
33D
100
AcDbEntity
  8
025
100
AcDbLine
 62
2
  6
CONTINUOUS
 10
56.0730638924
 20
159.8936118485
 11
56.0730638924
 21
158.8749739211
  0
LINE
  5
33E
100
AcDbEntity
  8
025
100
AcDbLine
 62
2
  6
CONTINUOUS
 10
56.0730638924
 20
158.3794203348
 11
56.0730638924
 21
157.3607824073
  0
LINE
  5
33F
100
AcDbEntity
  8
025
100
AcDbLine
 62
2
  6
CONTINUOUS
 10
56.0730638924
 20
156.865228821
 11
56.0730638924
 21
155.8465908936
  0
LINE
  5
340
100
AcDbEntity
  8
025
100
AcDbLine
 62
2
  6
CONTINUOUS
 10
56.0730638924
 20
155.3510373072
 11
56.0730638924
 21
154.3323993798
  0
LINE
  5
341
100
AcDbEntity
  8
025
100
AcDbLine
 62
2
  6
CONTINUOUS
 10
56.3483714404
 20
205.634345159
 11
56.3483714404
 21
205.3968648635
  0
LINE
  5
342
100
AcDbEntity
  8
025
100
AcDbLine
 62
2
  6
CONTINUOUS
 10
56.3483714404
 20
204.3782269361
 11
56.3483714404
 21
203.8826733498
  0
LINE
  5
343
100
AcDbEntity
  8
025
100
AcDbLine
 62
2
  6
CONTINUOUS
 10
56.3483714404
 20
202.8640354223
 11
56.3483714404
 21
202.368481836
  0
LINE
  5
344
100
AcDbEntity
  8
025
100
AcDbLine
 62
2
  6
CONTINUOUS
 10
56.3483714404
 20
201.3498439086
 11
56.3483714404
 21
200.8542903223
  0
LINE
  5
345
100
AcDbEntity
  8
025
100
AcDbLine
 62
2
  6
CONTINUOUS
 10
56.3483714404
 20
199.8356523948
 11
56.3483714404
 21
199.3400988085
  0
LINE
  5
346
100
AcDbEntity
  8
025
100
AcDbLine
 62
2
  6
CONTINUOUS
 10
56.3483714404
 20
198.3214608811
 11
56.3483714404
 21
197.8259072947
  0
LINE
  5
347
100
AcDbEntity
  8
025
100
AcDbLine
 62
2
  6
CONTINUOUS
 10
56.3483714404
 20
196.8072693673
 11
56.3483714404
 21
196.311715781
  0
LINE
  5
348
100
AcDbEntity
  8
025
100
AcDbLine
 62
2
  6
CONTINUOUS
 10
56.3483714404
 20
195.2930778535
 11
56.3483714404
 21
194.7975242672
  0
LINE
  5
349
100
AcDbEntity
  8
025
100
AcDbLine
 62
2
  6
CONTINUOUS
 10
56.3483714404
 20
193.7788863398
 11
56.3483714404
 21
193.2833327534
  0
LINE
  5
34A
100
AcDbEntity
  8
025
100
AcDbLine
 62
2
  6
CONTINUOUS
 10
56.3483714404
 20
192.264694826
 11
56.3483714404
 21
191.7691412397
  0
LINE
  5
34B
100
AcDbEntity
  8
025
100
AcDbLine
 62
2
  6
CONTINUOUS
 10
56.3483714404
 20
190.7505033122
 11
56.3483714404
 21
190.2549497259
  0
LINE
  5
34C
100
AcDbEntity
  8
025
100
AcDbLine
 62
2
  6
CONTINUOUS
 10
56.3483714404
 20
189.2363117985
 11
56.3483714404
 21
188.7407582122
  0
LINE
  5
34D
100
AcDbEntity
  8
025
100
AcDbLine
 62
2
  6
CONTINUOUS
 10
56.3483714404
 20
187.7221202847
 11
56.3483714404
 21
187.2265666984
  0
LINE
  5
34E
100
AcDbEntity
  8
025
100
AcDbLine
 62
2
  6
CONTINUOUS
 10
56.3483714404
 20
186.207928771
 11
56.3483714404
 21
185.7123751846
  0
LINE
  5
34F
100
AcDbEntity
  8
025
100
AcDbLine
 62
2
  6
CONTINUOUS
 10
56.3483714404
 20
184.6937372572
 11
56.3483714404
 21
184.1981836709
  0
LINE
  5
350
100
AcDbEntity
  8
025
100
AcDbLine
 62
2
  6
CONTINUOUS
 10
56.3483714404
 20
183.1795457434
 11
56.3483714404
 21
182.6839921571
  0
LINE
  5
351
100
AcDbEntity
  8
025
100
AcDbLine
 62
2
  6
CONTINUOUS
 10
56.3483714404
 20
181.5716317155
 11
56.3483714404
 21
181.1698006434
  0
LINE
  5
352
100
AcDbEntity
  8
025
100
AcDbLine
 62
2
  6
CONTINUOUS
 10
56.3483714404
 20
180.1511627159
 11
56.3483714404
 21
179.6556091296
  0
LINE
  5
353
100
AcDbEntity
  8
025
100
AcDbLine
 62
2
  6
CONTINUOUS
 10
56.3483714404
 20
178.6369712022
 11
56.3483714404
 21
178.1414176158
  0
LINE
  5
354
100
AcDbEntity
  8
025
100
AcDbLine
 62
2
  6
CONTINUOUS
 10
56.3483714404
 20
177.1227796884
 11
56.3483714404
 21
176.6272261021
  0
LINE
  5
355
100
AcDbEntity
  8
025
100
AcDbLine
 62
2
  6
CONTINUOUS
 10
56.3483714404
 20
175.6085881746
 11
56.3483714404
 21
175.1130345883
  0
LINE
  5
356
100
AcDbEntity
  8
025
100
AcDbLine
 62
2
  6
CONTINUOUS
 10
56.3483714404
 20
174.0943966609
 11
56.3483714404
 21
173.5988430746
  0
LINE
  5
357
100
AcDbEntity
  8
025
100
AcDbLine
 62
2
  6
CONTINUOUS
 10
56.3483714404
 20
172.5802051471
 11
56.3483714404
 21
172.0846515608
  0
LINE
  5
358
100
AcDbEntity
  8
025
100
AcDbLine
 62
2
  6
CONTINUOUS
 10
56.3483714404
 20
171.0660136333
 11
56.3483714404
 21
170.570460047
  0
LINE
  5
359
100
AcDbEntity
  8
025
100
AcDbLine
 62
2
  6
CONTINUOUS
 10
56.3483714404
 20
169.5518221196
 11
56.3483714404
 21
169.0562685333
  0
LINE
  5
35A
100
AcDbEntity
  8
025
100
AcDbLine
 62
2
  6
CONTINUOUS
 10
56.3483714404
 20
168.0376306058
 11
56.3483714404
 21
167.5420770195
  0
LINE
  5
35B
100
AcDbEntity
  8
025
100
AcDbLine
 62
2
  6
CONTINUOUS
 10
56.3483714404
 20
166.5234390921
 11
56.3483714404
 21
166.0278855057
  0
LINE
  5
35C
100
AcDbEntity
  8
025
100
AcDbLine
 62
2
  6
CONTINUOUS
 10
56.3483714404
 20
165.0092475783
 11
56.3483714404
 21
164.513693992
  0
LINE
  5
35D
100
AcDbEntity
  8
025
100
AcDbLine
 62
2
  6
CONTINUOUS
 10
56.3483714404
 20
163.4950560645
 11
56.3483714404
 21
162.9995024782
  0
LINE
  5
35E
100
AcDbEntity
  8
025
100
AcDbLine
 62
2
  6
CONTINUOUS
 10
56.3483714404
 20
161.9808645508
 11
56.3483714404
 21
161.4853109645
  0
LINE
  5
35F
100
AcDbEntity
  8
025
100
AcDbLine
 62
2
  6
CONTINUOUS
 10
56.3483714404
 20
160.466673037
 11
56.3483714404
 21
159.9711194507
  0
LINE
  5
360
100
AcDbEntity
  8
025
100
AcDbLine
 62
2
  6
CONTINUOUS
 10
56.3483714404
 20
158.9524815233
 11
56.3483714404
 21
158.4569279369
  0
LINE
  5
361
100
AcDbEntity
  8
025
100
AcDbLine
 62
2
  6
CONTINUOUS
 10
56.3483714404
 20
157.4382900095
 11
56.3483714404
 21
156.9427364232
  0
LINE
  5
362
100
AcDbEntity
  8
025
100
AcDbLine
 62
2
  6
CONTINUOUS
 10
56.3483714404
 20
155.9240984957
 11
56.3483714404
 21
155.4285449094
  0
LINE
  5
363
100
AcDbEntity
  8
025
100
AcDbLine
 62
2
  6
CONTINUOUS
 10
56.3483714404
 20
154.409906982
 11
56.3483714404
 21
154.0609822002
  0
LINE
  5
364
100
AcDbEntity
  8
05
100
AcDbLine
 62
7
  6
CONTINUOUS
 10
56.4095620304
 20
233.5974487895
 11
56.4095620304
 21
239.5659995787
  0
LINE
  5
365
100
AcDbEntity
  8
SCHRAFFIERT
100
AcDbLine
 62
2
  6
CONTINUOUS
 10
56.5966929583
 20
231.5719274492
 11
56.5966929583
 21
227.5719274492
  0
LINE
  5
366
100
AcDbEntity
  8
05
100
AcDbLine
 62
7
  6
CONTINUOUS
 10
57.3216929583
 20
216.634345159
 11
57.3216929583
 21
215.14470813
  0
LINE
  5
367
100
AcDbEntity
  8
05
100
AcDbLine
 62
7
  6
CONTINUOUS
 10
55.9516869581
 20
233.5974487895
 11
55.9565425553
 21
239.21960984
  0
LINE
  5
368
100
AcDbEntity
  8
05
100
AcDbLine
 62
7
  6
CONTINUOUS
 10
54.576054288
 20
144.1167259451
 11
54.5716929583
 21
143.9501734838
  0
LINE
  5
369
100
AcDbEntity
  8
05
100
AcDbLine
 62
7
  6
CONTINUOUS
 10
54.576054288
 20
144.1167259451
 11
55.072378191
 21
153.5871501784
  0
LINE
  5
36A
100
AcDbEntity
  8
05
100
AcDbLine
 62
7
  6
CONTINUOUS
 10
64.066232071
 20
225.5719274492
 11
63.9623320825
 21
224.3843451465
  0
LINE
  5
36B
100
AcDbEntity
  8
0
100
AcDbLine
 62
2
  6
CONTINUOUS
 10
47.9423190292
 20
154.0609822002
 11
48.5256523625
 21
157.5609822002
  0
LINE
  5
36C
100
AcDbEntity
  8
0
100
AcDbLine
 62
2
  6
CONTINUOUS
 10
47.3589856958
 20
157.5609822002
 11
47.9423190292
 21
154.0609822002
  0
LINE
  5
36D
100
AcDbEntity
  8
0
100
AcDbLine
 62
2
  6
CONTINUOUS
 10
48.5256523625
 20
157.5609822002
 11
47.3589856958
 21
157.5609822002
  0
HATCH
  5
36E
100
AcDbEntity
  8
0
100
AcDbHatch
 62
2
  6
CONTINUOUS
 10
0.0
 20
0.0
 30
0.0
210
0.0
220
0.0
230
1.0
  2

 70
1
 71
1
 91
1
 92
1
 93
3
 72
1
 10
48.5256523625
 20
157.5609822002
 11
47.3589856958
 21
157.5609822002
 72
1
 10
47.3589856958
 20
157.5609822002
 11
47.9423190292
 21
154.0609822002
 72
1
 10
47.9423190292
 20
154.0609822002
 11
48.5256523625
 21
157.5609822002
 97
3
330
36B
330
36C
330
36D
 75
0
 76
1
 98
1
 10
0.0
 20
0.0
  0
LINE
  5
36F
100
AcDbEntity
  8
0
100
AcDbLine
 62
2
  6
CONTINUOUS
 10
47.3589856958
 20
133.0609822002
 11
47.9423190292
 21
136.5609822002
  0
LINE
  5
370
100
AcDbEntity
  8
0
100
AcDbLine
 62
2
  6
CONTINUOUS
 10
47.9423190292
 20
136.5609822002
 11
48.5256523625
 21
133.0609822002
  0
LINE
  5
371
100
AcDbEntity
  8
0
100
AcDbLine
 62
2
  6
CONTINUOUS
 10
48.5256523625
 20
133.0609822002
 11
47.3589856958
 21
133.0609822002
  0
HATCH
  5
372
100
AcDbEntity
  8
0
100
AcDbHatch
 62
2
  6
CONTINUOUS
 10
0.0
 20
0.0
 30
0.0
210
0.0
220
0.0
230
1.0
  2

 70
1
 71
1
 91
1
 92
1
 93
3
 72
1
 10
47.9423190292
 20
136.5609822002
 11
48.5256523625
 21
133.0609822002
 72
1
 10
48.5256523625
 20
133.0609822002
 11
47.3589856958
 21
133.0609822002
 72
1
 10
47.3589856958
 20
133.0609822002
 11
47.9423190292
 21
136.5609822002
 97
3
330
36F
330
370
330
371
 75
0
 76
1
 98
1
 10
0.0
 20
0.0
  0
LINE
  5
373
100
AcDbEntity
  8
0
100
AcDbLine
 62
2
  6
CONTINUOUS
 10
129.0516862181
 20
101.7325147697
 11
132.5516862181
 21
102.3158481031
  0
LINE
  5
374
100
AcDbEntity
  8
0
100
AcDbLine
 62
2
  6
CONTINUOUS
 10
132.5516862181
 20
102.3158481031
 11
129.0516862181
 21
102.8991814364
  0
LINE
  5
375
100
AcDbEntity
  8
0
100
AcDbLine
 62
2
  6
CONTINUOUS
 10
129.0516862181
 20
102.8991814364
 11
129.0516862181
 21
101.7325147697
  0
HATCH
  5
376
100
AcDbEntity
  8
0
100
AcDbHatch
 62
2
  6
CONTINUOUS
 10
0.0
 20
0.0
 30
0.0
210
0.0
220
0.0
230
1.0
  2

 70
1
 71
1
 91
1
 92
1
 93
3
 72
1
 10
132.5516862181
 20
102.3158481031
 11
129.0516862181
 21
102.8991814364
 72
1
 10
129.0516862181
 20
102.8991814364
 11
129.0516862181
 21
101.7325147697
 72
1
 10
129.0516862181
 20
101.7325147697
 11
132.5516862181
 21
102.3158481031
 97
3
330
373
330
374
330
375
 75
0
 76
1
 98
1
 10
0.0
 20
0.0
  0
LINE
  5
377
100
AcDbEntity
  8
0
100
AcDbLine
 62
2
  6
CONTINUOUS
 10
123.050575107
 20
102.3158481031
 11
126.550575107
 21
102.8991814364
  0
LINE
  5
378
100
AcDbEntity
  8
0
100
AcDbLine
 62
2
  6
CONTINUOUS
 10
126.550575107
 20
101.7325147697
 11
123.050575107
 21
102.3158481031
  0
LINE
  5
379
100
AcDbEntity
  8
0
100
AcDbLine
 62
2
  6
CONTINUOUS
 10
126.550575107
 20
102.8991814364
 11
126.550575107
 21
101.7325147697
  0
HATCH
  5
37A
100
AcDbEntity
  8
0
100
AcDbHatch
 62
2
  6
CONTINUOUS
 10
0.0
 20
0.0
 30
0.0
210
0.0
220
0.0
230
1.0
  2

 70
1
 71
1
 91
1
 92
1
 93
3
 72
1
 10
126.550575107
 20
102.8991814364
 11
126.550575107
 21
101.7325147697
 72
1
 10
126.550575107
 20
101.7325147697
 11
123.050575107
 21
102.3158481031
 72
1
 10
123.050575107
 20
102.3158481031
 11
126.550575107
 21
102.8991814364
 97
3
330
377
330
378
330
379
 75
0
 76
1
 98
1
 10
0.0
 20
0.0
  0
LINE
  5
37B
100
AcDbEntity
  8
07
100
AcDbLine
 62
7
  6
CONTINUOUS
 10
131.3011306625
 20
89.4025368124
 11
124.3011306625
 21
89.4025368124
  0
LINE
  5
37C
100
AcDbEntity
  8
025
100
AcDbLine
 62
2
  6
CONTINUOUS
 10
132.5516862181
 20
90.653092368
 11
123.050575107
 21
90.653092368
  0
LINE
  5
37D
100
AcDbEntity
  8
025
100
AcDbLine
 62
2
  6
CONTINUOUS
 10
132.5516862181
 20
94.6537941223
 11
123.050575107
 21
94.6537941223
  0
LINE
  5
37E
100
AcDbEntity
  8
07
100
AcDbLine
 62
7
  6
CONTINUOUS
 10
131.5516862181
 20
95.6537941223
 11
124.050575107
 21
95.6537941223
  0
LINE
  5
37F
100
AcDbEntity
  8
07
100
AcDbLine
 62
7
  6
CONTINUOUS
 10
55.37123097
 20
120.5591108552
 11
55.0711958823
 21
120.8591459429
  0
LINE
  5
380
100
AcDbEntity
  8
05
100
AcDbLine
 62
7
  6
CONTINUOUS
 10
54.5771538456
 20
225.5719274492
 11
54.6810538341
 21
224.3843451465
  0
LINE
  5
381
100
AcDbEntity
  8
05
100
AcDbLine
 62
7
  6
CONTINUOUS
 10
54.576054288
 20
215.5786014141
 11
55.072378191
 21
206.1081771808
  0
LINE
  5
382
100
AcDbEntity
  8
05
100
AcDbLine
 62
7
  6
CONTINUOUS
 10
64.0716929583
 20
144.0335068172
 11
63.5710077257
 21
153.5871501784
  0
LINE
  5
383
100
AcDbEntity
  8
SCHRAFFIERT
100
AcDbLine
 62
2
  6
CONTINUOUS
 10
64.071695288
 20
144.0335070136
 11
64.0315909194
 21
144.7987439519
  0
LINE
  5
384
100
AcDbEntity
  8
SCHRAFFIERT
100
AcDbLine
 62
2
  6
CONTINUOUS
 10
61.321695288
 20
144.5506194256
 11
61.321695288
 21
143.0609823967
  0
LINE
  5
385
100
AcDbEntity
  8
SCHRAFFIERT
100
AcDbLine
 62
2
  6
CONTINUOUS
 10
63.572192364
 20
140.2300712339
 11
63.572192364
 21
137.9751291664
  0
LINE
  5
386
100
AcDbEntity
  8
SCHRAFFIERT
100
AcDbLine
 62
2
  6
CONTINUOUS
 10
63.596695288
 20
137.9609823967
 11
63.596695288
 21
137.6278111439
  0
LINE
  5
387
100
AcDbEntity
  8
SCHRAFFIERT
100
AcDbLine
 62
2
  6
CONTINUOUS
 10
63.596695288
 20
137.6278111439
 11
63.596695288
 21
136.6609823967
  0
LINE
  5
388
100
AcDbEntity
  8
SCHRAFFIERT
100
AcDbLine
 62
2
  6
CONTINUOUS
 10
63.721695288
 20
141.4109823967
 11
63.721695288
 21
140.5419225044
  0
LINE
  5
389
100
AcDbEntity
  8
SCHRAFFIERT
100
AcDbLine
 62
2
  6
CONTINUOUS
 10
64.071695288
 20
136.5609823967
 11
64.071695288
 21
137.8023876725
  0
LINE
  5
38A
100
AcDbEntity
  8
SCHRAFFIERT
100
AcDbLine
 62
2
  6
CONTINUOUS
 10
64.071695288
 20
137.8023876725
 11
64.071695288
 21
144.0335070136
  0
LINE
  5
38B
100
AcDbEntity
  8
SCHRAFFIERT
100
AcDbLine
 62
2
  6
CONTINUOUS
 10
63.596695288
 20
136.6609823967
 11
63.696695288
 21
136.5609823967
  0
LINE
  5
38C
100
AcDbEntity
  8
SCHRAFFIERT
100
AcDbLine
 62
2
  6
CONTINUOUS
 10
63.572192364
 20
137.9751291664
 11
63.596695288
 21
137.9609823967
  0
LINE
  5
38D
100
AcDbEntity
  8
SCHRAFFIERT
100
AcDbLine
 62
2
  6
CONTINUOUS
 10
61.321695288
 20
143.0609823967
 11
62.571695288
 21
141.8109823967
  0
LINE
  5
38E
100
AcDbEntity
  8
SCHRAFFIERT
100
AcDbLine
 62
2
  6
CONTINUOUS
 10
62.2813062423
 20
145.1046510684
 11
61.321695288
 21
144.5506194256
  0
LINE
  5
38F
100
AcDbEntity
  8
SCHRAFFIERT
100
AcDbLine
 62
2
  6
CONTINUOUS
 10
63.696695288
 20
136.5609823967
 11
63.8222216038
 21
136.5609823967
  0
LINE
  5
390
100
AcDbEntity
  8
SCHRAFFIERT
100
AcDbLine
 62
2
  6
CONTINUOUS
 10
63.8222216038
 20
136.5609823967
 11
64.071695288
 21
136.5609823967
  0
LINE
  5
391
100
AcDbEntity
  8
SCHRAFFIERT
100
AcDbLine
 62
2
  6
CONTINUOUS
 10
62.907900715
 20
144.9207310181
 11
62.2813062423
 21
145.1046510684
  0
LINE
  5
392
100
AcDbEntity
  8
SCHRAFFIERT
100
AcDbLine
 62
2
  6
CONTINUOUS
 10
64.071695288
 20
137.8023876725
 11
63.596695288
 21
137.6278111439
  0
LINE
  5
393
100
AcDbEntity
  8
SCHRAFFIERT
100
AcDbLine
 62
2
  6
CONTINUOUS
 10
63.596695288
 20
137.6278111439
 11
64.071695288
 21
137.8023876725
  0
LINE
  5
394
100
AcDbEntity
  8
SCHRAFFIERT
100
AcDbLine
 62
2
  6
CONTINUOUS
 10
62.571695288
 20
141.8109823967
 11
63.321695288
 21
141.8109823967
  0
LINE
  5
395
100
AcDbEntity
  8
SCHRAFFIERT
100
AcDbLine
 62
2
  6
CONTINUOUS
 10
64.0315909194
 20
144.7987439519
 11
62.907900715
 21
144.9207310181
  0
ARC
  5
396
100
AcDbEntity
  8
SCHRAFFIERT
100
AcDbCircle
 62
2
  6
CONTINUOUS
 10
63.321695288
 20
141.4109823967
 40
0.4
100
AcDbArc
 50
0.0
 51
90.0
  0
ARC
  5
397
100
AcDbEntity
  8
SCHRAFFIERT
100
AcDbCircle
 62
2
  6
CONTINUOUS
 10
63.321695288
 20
140.5419225044
 40
0.4
100
AcDbArc
 50
308.7734558361
 51
360.0
  0
HATCH
  5
398
100
AcDbEntity
  8
SCHRAFFIERT
100
AcDbHatch
 62
4
  6
CONTINUOUS
 10
0.0
 20
0.0
 30
0.0
210
0.0
220
0.0
230
1.0
  2
ANSI31
 70
0
 71
1
 91
1
 92
1
 93
2
 72
1
 10
64.071695288
 20
137.8023876725
 11
63.596695288
 21
137.6278111439
 72
1
 10
63.596695288
 20
137.6278111439
 11
64.071695288
 21
137.8023876725
 97
21
330
383
330
384
330
385
330
386
330
387
330
388
330
389
330
38A
330
38B
330
38C
330
38D
330
38E
330
38F
330
390
330
391
330
392
330
393
330
394
330
395
330
396
330
397
 75
0
 76
0
 52
45.0
 41
0.625
 77
0
 78
1
 53
45.0
 43
-4.1771330193
 44
4.1771330193
 45
-0.4419417382
 46
0.4419417382
 79
0
 98
1
 10
0.0
 20
0.0
  0
LINE
  5
399
100
AcDbEntity
  8
05
100
AcDbLine
 62
7
  6
CONTINUOUS
 10
57.5716929583
 20
136.5609822002
 11
57.5716929583
 21
134.5609822002
  0
LINE
  5
39A
100
AcDbEntity
  8
SCHRAFFIERT
100
AcDbLine
 62
2
  6
CONTINUOUS
 10
57.6466929583
 20
231.5719274492
 11
57.6466929583
 21
227.5719274492
  0
LINE
  5
39B
100
AcDbEntity
  8
05
100
AcDbLine
 62
7
  6
CONTINUOUS
 10
58.2624165487
 20
224.3843451465
 11
58.2624165487
 21
225.5527047294
  0
LINE
  5
39C
100
AcDbEntity
  8
05
100
AcDbLine
 62
7
  6
CONTINUOUS
 10
58.7263934967
 20
132.5609822002
 11
58.7263934967
 21
135.0609822002
  0
LINE
  5
39D
100
AcDbEntity
  8
SCHRAFFIERT
100
AcDbLine
 62
2
  6
CONTINUOUS
 10
58.8466929583
 20
231.5719274492
 11
58.8466929583
 21
227.5719274492
  0
LINE
  5
39E
100
AcDbEntity
  8
MITTE
100
AcDbLine
 62
2
  6
CENTER
 10
59.3216929583
 20
119.9218837499
 11
59.3216929583
 21
240.1516138595
  0
LINE
  5
39F
100
AcDbEntity
  8
SCHRAFFIERT
100
AcDbLine
 62
2
  6
CONTINUOUS
 10
59.7966929583
 20
231.5719274492
 11
59.7966929583
 21
227.5719274492
  0
LINE
  5
3A0
100
AcDbEntity
  8
05
100
AcDbLine
 62
7
  6
CONTINUOUS
 10
60.380969368
 20
224.3843451465
 11
60.380969368
 21
225.5527047294
  0
LINE
  5
3A1
100
AcDbEntity
  8
SCHRAFFIERT
100
AcDbLine
 62
2
  6
CONTINUOUS
 10
60.9966929583
 20
231.5719274492
 11
60.9966929583
 21
227.5719274492
  0
LINE
  5
3A2
100
AcDbEntity
  8
05
100
AcDbLine
 62
7
  6
CONTINUOUS
 10
61.0716929583
 20
126.4345348318
 11
61.0716929583
 21
125.5596956505
  0
LINE
  5
3A3
100
AcDbEntity
  8
05
100
AcDbLine
 62
7
  6
CONTINUOUS
 10
61.3216929583
 20
216.634345159
 11
61.3216929583
 21
215.14470813
  0
LINE
  5
3A4
100
AcDbEntity
  8
07
100
AcDbLine
 62
7
  6
CONTINUOUS
 10
61.3216929583
 20
132.5518059645
 11
61.3216929583
 21
129.4354412646
  0
LINE
  5
3A5
100
AcDbEntity
  8
010
100
AcDbLine
 62
2
  6
CONTINUOUS
 10
61.3216929583
 20
129.4354412646
 11
61.3216929583
 21
126.6845348318
  0
LINE
  5
3A6
100
AcDbEntity
  8
05
100
AcDbLine
 62
7
  6
CONTINUOUS
 10
61.3216929583
 20
126.6845348318
 11
61.3216929583
 21
126.344850041
  0
LINE
  5
3A7
100
AcDbEntity
  8
05
100
AcDbLine
 62
7
  6
CONTINUOUS
 10
61.3216929583
 20
143.0609822002
 11
61.3216929583
 21
144.5506192292
  0
LINE
  5
3A8
100
AcDbEntity
  8
SCHRAFFIERT
100
AcDbLine
 62
2
  6
CONTINUOUS
 10
61.321695288
 20
132.551806161
 11
61.321695288
 21
131.0987685632
  0
LINE
  5
3A9
100
AcDbEntity
  8
SCHRAFFIERT
100
AcDbLine
 62
2
  6
CONTINUOUS
 10
61.321695288
 20
131.0987685632
 11
61.321695288
 21
129.5601636832
  0
LINE
  5
3AA
100
AcDbEntity
  8
SCHRAFFIERT
100
AcDbLine
 62
2
  6
CONTINUOUS
 10
61.446943826
 20
126.559812806
 11
61.446943826
 21
126.2196016994
  0
LINE
  5
3AB
100
AcDbEntity
  8
SCHRAFFIERT
100
AcDbLine
 62
2
  6
CONTINUOUS
 10
61.6969730658
 20
129.3101344435
 11
61.6969730658
 21
126.8098420458
  0
LINE
  5
3AC
100
AcDbEntity
  8
SCHRAFFIERT
100
AcDbLine
 62
2
  6
CONTINUOUS
 10
61.830462167
 20
133.06057304
 11
61.830462167
 21
131.035607433
  0
LINE
  5
3AD
100
AcDbEntity
  8
SCHRAFFIERT
100
AcDbLine
 62
2
  6
CONTINUOUS
 10
61.830462167
 20
131.035607433
 11
61.830462167
 21
125.8360833584
  0
LINE
  5
3AE
100
AcDbEntity
  8
SCHRAFFIERT
100
AcDbLine
 62
2
  6
CONTINUOUS
 10
61.830462167
 20
125.8360833584
 11
61.830462167
 21
131.035607433
  0
LINE
  5
3AF
100
AcDbEntity
  8
SCHRAFFIERT
100
AcDbLine
 62
2
  6
CONTINUOUS
 10
61.830462167
 20
131.035607433
 11
61.830462167
 21
133.06057304
  0
LINE
  5
3B0
100
AcDbEntity
  8
SCHRAFFIERT
100
AcDbLine
 62
2
  6
CONTINUOUS
 10
63.0471309605
 20
133.06057304
 11
63.0471309605
 21
130.8845634494
  0
LINE
  5
3B1
100
AcDbEntity
  8
SCHRAFFIERT
100
AcDbLine
 62
2
  6
CONTINUOUS
 10
63.0471309605
 20
130.8845634494
 11
63.0471309605
 21
125.8360833584
  0
LINE
  5
3B2
100
AcDbEntity
  8
SCHRAFFIERT
100
AcDbLine
 62
2
  6
CONTINUOUS
 10
63.0471309605
 20
125.8360833584
 11
63.0471309605
 21
130.8845634494
  0
LINE
  5
3B3
100
AcDbEntity
  8
SCHRAFFIERT
100
AcDbLine
 62
2
  6
CONTINUOUS
 10
63.0471309605
 20
130.8845634494
 11
63.0471309605
 21
133.06057304
  0
LINE
  5
3B4
100
AcDbEntity
  8
SCHRAFFIERT
100
AcDbLine
 62
2
  6
CONTINUOUS
 10
63.3536728039
 20
125.9632750782
 11
63.3536728039
 21
127.1588772438
  0
LINE
  5
3B5
100
AcDbEntity
  8
SCHRAFFIERT
100
AcDbLine
 62
2
  6
CONTINUOUS
 10
63.3536728039
 20
131.7377791546
 11
63.3536728039
 21
132.9333813202
  0
LINE
  5
3B6
100
AcDbEntity
  8
SCHRAFFIERT
100
AcDbLine
 62
2
  6
CONTINUOUS
 10
63.4363474218
 20
131.7377791546
 11
63.4363474218
 21
130.8362439683
  0
LINE
  5
3B7
100
AcDbEntity
  8
SCHRAFFIERT
100
AcDbLine
 62
2
  6
CONTINUOUS
 10
63.4363474218
 20
130.8362439683
 11
63.4363474218
 21
127.1588772438
  0
LINE
  5
3B8
100
AcDbEntity
  8
SCHRAFFIERT
100
AcDbLine
 62
2
  6
CONTINUOUS
 10
63.4363474218
 20
127.1588772438
 11
63.4363474218
 21
130.8362439683
  0
LINE
  5
3B9
100
AcDbEntity
  8
SCHRAFFIERT
100
AcDbLine
 62
2
  6
CONTINUOUS
 10
63.4363474218
 20
130.8362439683
 11
63.4363474218
 21
131.7377791546
  0
LINE
  5
3BA
100
AcDbEntity
  8
SCHRAFFIERT
100
AcDbLine
 62
2
  6
CONTINUOUS
 10
63.7606863071
 20
127.4132606833
 11
63.7606863071
 21
130.7959787478
  0
LINE
  5
3BB
100
AcDbEntity
  8
SCHRAFFIERT
100
AcDbLine
 62
2
  6
CONTINUOUS
 10
63.7606863071
 20
130.7959787478
 11
63.7606863071
 21
131.4833957151
  0
LINE
  5
3BC
100
AcDbEntity
  8
SCHRAFFIERT
100
AcDbLine
 62
2
  6
CONTINUOUS
 10
61.446943826
 20
126.2196016994
 11
61.830462167
 21
125.8360833584
  0
LINE
  5
3BD
100
AcDbEntity
  8
SCHRAFFIERT
100
AcDbLine
 62
2
  6
CONTINUOUS
 10
61.446943826
 20
129.5601636832
 11
61.6969730658
 21
129.3101344435
  0
LINE
  5
3BE
100
AcDbEntity
  8
SCHRAFFIERT
100
AcDbLine
 62
2
  6
CONTINUOUS
 10
63.7606863071
 20
131.4833957151
 11
63.5063028676
 21
131.7377791546
  0
LINE
  5
3BF
100
AcDbEntity
  8
SCHRAFFIERT
100
AcDbLine
 62
2
  6
CONTINUOUS
 10
63.3536728039
 20
132.9333813202
 11
63.2264810842
 21
133.06057304
  0
LINE
  5
3C0
100
AcDbEntity
  8
SCHRAFFIERT
100
AcDbLine
 62
2
  6
CONTINUOUS
 10
61.830462167
 20
133.06057304
 11
61.321695288
 21
132.551806161
  0
LINE
  5
3C1
100
AcDbEntity
  8
SCHRAFFIERT
100
AcDbLine
 62
2
  6
CONTINUOUS
 10
61.6969730658
 20
126.8098420458
 11
61.446943826
 21
126.559812806
  0
LINE
  5
3C2
100
AcDbEntity
  8
SCHRAFFIERT
100
AcDbLine
 62
2
  6
CONTINUOUS
 10
63.5063028676
 20
127.1588772438
 11
63.7606863071
 21
127.4132606833
  0
LINE
  5
3C3
100
AcDbEntity
  8
SCHRAFFIERT
100
AcDbLine
 62
2
  6
CONTINUOUS
 10
63.2264810842
 20
125.8360833584
 11
63.3536728039
 21
125.9632750782
  0
LINE
  5
3C4
100
AcDbEntity
  8
SCHRAFFIERT
100
AcDbLine
 62
2
  6
CONTINUOUS
 10
61.830462167
 20
125.8360833584
 11
62.2852623581
 21
125.8360833584
  0
LINE
  5
3C5
100
AcDbEntity
  8
SCHRAFFIERT
100
AcDbLine
 62
2
  6
CONTINUOUS
 10
62.2852623581
 20
125.8360833584
 11
63.0471309605
 21
125.8360833584
  0
LINE
  5
3C6
100
AcDbEntity
  8
SCHRAFFIERT
100
AcDbLine
 62
2
  6
CONTINUOUS
 10
63.0471309605
 20
125.8360833584
 11
63.2264810842
 21
125.8360833584
  0
LINE
  5
3C7
100
AcDbEntity
  8
SCHRAFFIERT
100
AcDbLine
 62
2
  6
CONTINUOUS
 10
63.4363474218
 20
127.1588772438
 11
63.5063028676
 21
127.1588772438
  0
LINE
  5
3C8
100
AcDbEntity
  8
SCHRAFFIERT
100
AcDbLine
 62
2
  6
CONTINUOUS
 10
63.3536728039
 20
127.1588772438
 11
63.4363474218
 21
127.1588772438
  0
LINE
  5
3C9
100
AcDbEntity
  8
SCHRAFFIERT
100
AcDbLine
 62
2
  6
CONTINUOUS
 10
61.321695288
 20
129.5601636832
 11
61.446943826
 21
129.5601636832
  0
LINE
  5
3CA
100
AcDbEntity
  8
SCHRAFFIERT
100
AcDbLine
 62
2
  6
CONTINUOUS
 10
63.4363474218
 20
131.7377791546
 11
63.3536728039
 21
131.7377791546
  0
LINE
  5
3CB
100
AcDbEntity
  8
SCHRAFFIERT
100
AcDbLine
 62
2
  6
CONTINUOUS
 10
63.5063028676
 20
131.7377791546
 11
63.4363474218
 21
131.7377791546
  0
LINE
  5
3CC
100
AcDbEntity
  8
SCHRAFFIERT
100
AcDbLine
 62
2
  6
CONTINUOUS
 10
63.2264810842
 20
133.06057304
 11
63.0471309605
 21
133.06057304
  0
LINE
  5
3CD
100
AcDbEntity
  8
SCHRAFFIERT
100
AcDbLine
 62
2
  6
CONTINUOUS
 10
63.0471309605
 20
133.06057304
 11
61.830462167
 21
133.06057304
  0
LINE
  5
3CE
100
AcDbEntity
  8
SCHRAFFIERT
100
AcDbLine
 62
2
  6
CONTINUOUS
 10
63.7606863071
 20
130.7959787478
 11
63.4363474218
 21
130.8362439683
  0
LINE
  5
3CF
100
AcDbEntity
  8
SCHRAFFIERT
100
AcDbLine
 62
2
  6
CONTINUOUS
 10
63.4363474218
 20
130.8362439683
 11
63.0471309605
 21
130.8845634494
  0
LINE
  5
3D0
100
AcDbEntity
  8
SCHRAFFIERT
100
AcDbLine
 62
2
  6
CONTINUOUS
 10
63.0471309605
 20
130.8845634494
 11
61.830462167
 21
131.035607433
  0
LINE
  5
3D1
100
AcDbEntity
  8
SCHRAFFIERT
100
AcDbLine
 62
2
  6
CONTINUOUS
 10
61.830462167
 20
131.035607433
 11
61.321695288
 21
131.0987685632
  0
LINE
  5
3D2
100
AcDbEntity
  8
SCHRAFFIERT
100
AcDbLine
 62
2
  6
CONTINUOUS
 10
61.321695288
 20
131.0987685632
 11
61.830462167
 21
131.035607433
  0
LINE
  5
3D3
100
AcDbEntity
  8
SCHRAFFIERT
100
AcDbLine
 62
2
  6
CONTINUOUS
 10
61.830462167
 20
131.035607433
 11
63.0471309605
 21
130.8845634494
  0
LINE
  5
3D4
100
AcDbEntity
  8
SCHRAFFIERT
100
AcDbLine
 62
2
  6
CONTINUOUS
 10
63.0471309605
 20
130.8845634494
 11
63.4363474218
 21
130.8362439683
  0
LINE
  5
3D5
100
AcDbEntity
  8
SCHRAFFIERT
100
AcDbLine
 62
2
  6
CONTINUOUS
 10
63.4363474218
 20
130.8362439683
 11
63.7606863071
 21
130.7959787478
  0
LINE
  5
3D6
100
AcDbEntity
  8
SCHRAFFIERT
100
AcDbLine
 62
2
  6
CONTINUOUS
 10
61.321695288
 20
129.435441461
 11
61.321695288
 21
126.6845350283
  0
LINE
  5
3D7
100
AcDbEntity
  8
SCHRAFFIERT
100
AcDbLine
 62
2
  6
CONTINUOUS
 10
61.6969730658
 20
127.059812806
 11
61.6969730658
 21
129.0601636832
  0
LINE
  5
3D8
100
AcDbEntity
  8
SCHRAFFIERT
100
AcDbLine
 62
2
  6
CONTINUOUS
 10
63.2971602003
 20
125.534692923
 11
63.2971602003
 21
121.1606084938
  0
LINE
  5
3D9
100
AcDbEntity
  8
SCHRAFFIERT
100
AcDbLine
 62
2
  6
CONTINUOUS
 10
63.2971602003
 20
121.1606084938
 11
63.2971602003
 21
120.5841139756
  0
LINE
  5
3DA
100
AcDbEntity
  8
SCHRAFFIERT
100
AcDbLine
 62
2
  6
CONTINUOUS
 10
63.572192364
 20
120.8591461394
 11
63.572192364
 21
120.9830261351
  0
LINE
  5
3DB
100
AcDbEntity
  8
SCHRAFFIERT
100
AcDbLine
 62
2
  6
CONTINUOUS
 10
63.572192364
 20
120.9830261351
 11
63.572192364
 21
125.2596607593
  0
LINE
  5
3DC
100
AcDbEntity
  8
SCHRAFFIERT
100
AcDbLine
 62
2
  6
CONTINUOUS
 10
63.572192364
 20
120.9830261351
 11
63.2971602003
 21
121.1606084938
  0
LINE
  5
3DD
100
AcDbEntity
  8
SCHRAFFIERT
100
AcDbLine
 62
2
  6
CONTINUOUS
 10
63.2971602003
 20
121.1606084938
 11
63.572192364
 21
120.9830261351
  0
LINE
  5
3DE
100
AcDbEntity
  8
SCHRAFFIERT
100
AcDbLine
 62
2
  6
CONTINUOUS
 10
63.572192364
 20
125.2596607593
 11
63.2971602003
 21
125.534692923
  0
LINE
  5
3DF
100
AcDbEntity
  8
SCHRAFFIERT
100
AcDbLine
 62
2
  6
CONTINUOUS
 10
61.6969730658
 20
129.0601636832
 11
61.321695288
 21
129.435441461
  0
LINE
  5
3E0
100
AcDbEntity
  8
SCHRAFFIERT
100
AcDbLine
 62
2
  6
CONTINUOUS
 10
61.321695288
 20
126.6845350283
 11
61.6969730658
 21
127.059812806
  0
LINE
  5
3E1
100
AcDbEntity
  8
SCHRAFFIERT
100
AcDbLine
 62
2
  6
CONTINUOUS
 10
63.2971602003
 20
120.5841139756
 11
63.572192364
 21
120.8591461394
  0
HATCH
  5
3E2
100
AcDbEntity
  8
SCHRAFFIERT
100
AcDbHatch
 62
4
  6
CONTINUOUS
 10
0.0
 20
0.0
 30
0.0
210
0.0
220
0.0
230
1.0
  2
ANSI31
 70
0
 71
1
 91
2
 92
1
 93
4
 72
1
 10
61.321695288
 20
126.6845350283
 11
61.6969730658
 21
127.059812806
 72
1
 10
61.6969730658
 20
127.059812806
 11
61.6969730658
 21
129.0601636832
 72
1
 10
61.6969730658
 20
129.0601636832
 11
61.321695288
 21
129.435441461
 72
1
 10
61.321695288
 20
129.435441461
 11
61.321695288
 21
126.6845350283
 97
12
330
3D6
330
3D7
330
3D8
330
3D9
330
3DA
330
3DB
330
3DC
330
3DD
330
3DE
330
3DF
330
3E0
330
3E1
 92
1
 93
2
 72
1
 10
63.572192364
 20
120.9830261351
 11
63.2971602003
 21
121.1606084938
 72
1
 10
63.2971602003
 20
121.1606084938
 11
63.572192364
 21
120.9830261351
 97
12
330
3D6
330
3D7
330
3D8
330
3D9
330
3DA
330
3DB
330
3DC
330
3DD
330
3DE
330
3DF
330
3E0
330
3E1
 75
0
 76
0
 52
135.0
 41
0.625
 77
0
 78
1
 53
135.0
 43
-3.262414765
 44
-3.262414765
 45
-0.4419417382
 46
-0.4419417382
 79
0
 98
1
 10
0.0
 20
0.0
  0
LINE
  5
3E3
100
AcDbEntity
  8
SCHRAFFIERT
100
AcDbLine
 62
2
  6
CONTINUOUS
 10
61.5719561162
 20
141.5615669956
 11
61.5719561162
 21
133.0605728435
  0
LINE
  5
3E4
100
AcDbEntity
  8
SCHRAFFIERT
100
AcDbLine
 62
2
  6
CONTINUOUS
 10
61.5719584459
 20
141.561567192
 11
61.5719584459
 21
137.2256000857
  0
LINE
  5
3E5
100
AcDbEntity
  8
SCHRAFFIERT
100
AcDbLine
 62
2
  6
CONTINUOUS
 10
61.5719584459
 20
137.2256000857
 11
61.5719584459
 21
133.06057304
  0
LINE
  5
3E6
100
AcDbEntity
  8
SCHRAFFIERT
100
AcDbLine
 62
2
  6
CONTINUOUS
 10
63.3221631243
 20
141.561567192
 11
63.3221631243
 21
137.971545768
  0
LINE
  5
3E7
100
AcDbEntity
  8
SCHRAFFIERT
100
AcDbLine
 62
2
  6
CONTINUOUS
 10
63.3221631243
 20
137.971545768
 11
63.3221631243
 21
136.5609823967
  0
LINE
  5
3E8
100
AcDbEntity
  8
SCHRAFFIERT
100
AcDbLine
 62
2
  6
CONTINUOUS
 10
63.3221631243
 20
136.5609823967
 11
63.3221631243
 21
137.971545768
  0
LINE
  5
3E9
100
AcDbEntity
  8
SCHRAFFIERT
100
AcDbLine
 62
2
  6
CONTINUOUS
 10
63.3221631243
 20
137.971545768
 11
63.3221631243
 21
141.561567192
  0
LINE
  5
3EA
100
AcDbEntity
  8
SCHRAFFIERT
100
AcDbLine
 62
2
  6
CONTINUOUS
 10
63.4363474218
 20
133.06057304
 11
63.4363474218
 21
131.7377791546
  0
LINE
  5
3EB
100
AcDbEntity
  8
SCHRAFFIERT
100
AcDbLine
 62
2
  6
CONTINUOUS
 10
63.4363474218
 20
127.1588772438
 11
63.4363474218
 21
125.559695847
  0
LINE
  5
3EC
100
AcDbEntity
  8
SCHRAFFIERT
100
AcDbLine
 62
2
  6
CONTINUOUS
 10
63.572192364
 20
136.5609823967
 11
63.572192364
 21
138.078109437
  0
LINE
  5
3ED
100
AcDbEntity
  8
SCHRAFFIERT
100
AcDbLine
 62
2
  6
CONTINUOUS
 10
63.572192364
 20
138.078109437
 11
63.572192364
 21
141.3115379522
  0
LINE
  5
3EE
100
AcDbEntity
  8
SCHRAFFIERT
100
AcDbLine
 62
2
  6
CONTINUOUS
 10
63.7606863071
 20
133.06057304
 11
63.7606863071
 21
131.4833957151
  0
LINE
  5
3EF
100
AcDbEntity
  8
SCHRAFFIERT
100
AcDbLine
 62
2
  6
CONTINUOUS
 10
63.7606863071
 20
131.4833957151
 11
63.7606863071
 21
130.9836467616
  0
LINE
  5
3F0
100
AcDbEntity
  8
SCHRAFFIERT
100
AcDbLine
 62
2
  6
CONTINUOUS
 10
63.7606863071
 20
130.9836467616
 11
63.7606863071
 21
127.4132606833
  0
LINE
  5
3F1
100
AcDbEntity
  8
SCHRAFFIERT
100
AcDbLine
 62
2
  6
CONTINUOUS
 10
63.7606863071
 20
127.4132606833
 11
63.7606863071
 21
125.559695847
  0
LINE
  5
3F2
100
AcDbEntity
  8
SCHRAFFIERT
100
AcDbLine
 62
2
  6
CONTINUOUS
 10
63.7606863071
 20
125.559695847
 11
63.7606863071
 21
127.4132606833
  0
LINE
  5
3F3
100
AcDbEntity
  8
SCHRAFFIERT
100
AcDbLine
 62
2
  6
CONTINUOUS
 10
63.7606863071
 20
131.4833957151
 11
63.7606863071
 21
133.06057304
  0
LINE
  5
3F4
100
AcDbEntity
  8
SCHRAFFIERT
100
AcDbLine
 62
2
  6
CONTINUOUS
 10
64.0722508436
 20
125.708818654
 11
64.0722508436
 21
130.9645204044
  0
LINE
  5
3F5
100
AcDbEntity
  8
SCHRAFFIERT
100
AcDbLine
 62
2
  6
CONTINUOUS
 10
64.0722508436
 20
130.9645204044
 11
64.0722508436
 21
136.3109531569
  0
LINE
  5
3F6
100
AcDbEntity
  8
SCHRAFFIERT
100
AcDbLine
 62
2
  6
CONTINUOUS
 10
63.5063028676
 20
131.7377791546
 11
63.7606863071
 21
131.4833957151
  0
LINE
  5
3F7
100
AcDbEntity
  8
SCHRAFFIERT
100
AcDbLine
 62
2
  6
CONTINUOUS
 10
64.0722508436
 20
136.3109531569
 11
63.8222216038
 21
136.5609823967
  0
LINE
  5
3F8
100
AcDbEntity
  8
SCHRAFFIERT
100
AcDbLine
 62
2
  6
CONTINUOUS
 10
63.4363474218
 20
125.559695847
 11
63.7606863071
 21
125.559695847
  0
LINE
  5
3F9
100
AcDbEntity
  8
SCHRAFFIERT
100
AcDbLine
 62
2
  6
CONTINUOUS
 10
63.7606863071
 20
125.559695847
 11
63.9231280365
 21
125.559695847
  0
LINE
  5
3FA
100
AcDbEntity
  8
SCHRAFFIERT
100
AcDbLine
 62
2
  6
CONTINUOUS
 10
63.572192364
 20
141.3115379522
 11
63.3221631243
 21
141.561567192
  0
LINE
  5
3FB
100
AcDbEntity
  8
SCHRAFFIERT
100
AcDbLine
 62
2
  6
CONTINUOUS
 10
63.7606863071
 20
127.4132606833
 11
63.5063028676
 21
127.1588772438
  0
LINE
  5
3FC
100
AcDbEntity
  8
SCHRAFFIERT
100
AcDbLine
 62
2
  6
CONTINUOUS
 10
63.5063028676
 20
127.1588772438
 11
63.4363474218
 21
127.1588772438
  0
LINE
  5
3FD
100
AcDbEntity
  8
SCHRAFFIERT
100
AcDbLine
 62
2
  6
CONTINUOUS
 10
63.4363474218
 20
131.7377791546
 11
63.5063028676
 21
131.7377791546
  0
LINE
  5
3FE
100
AcDbEntity
  8
SCHRAFFIERT
100
AcDbLine
 62
2
  6
CONTINUOUS
 10
63.7606863071
 20
133.06057304
 11
63.4363474218
 21
133.06057304
  0
LINE
  5
3FF
100
AcDbEntity
  8
SCHRAFFIERT
100
AcDbLine
 62
2
  6
CONTINUOUS
 10
61.5719584459
 20
133.06057304
 11
62.2852623581
 21
133.06057304
  0
LINE
  5
400
100
AcDbEntity
  8
SCHRAFFIERT
100
AcDbLine
 62
2
  6
CONTINUOUS
 10
62.2852623581
 20
133.06057304
 11
63.2264810842
 21
133.06057304
  0
LINE
  5
401
100
AcDbEntity
  8
SCHRAFFIERT
100
AcDbLine
 62
2
  6
CONTINUOUS
 10
63.2264810842
 20
133.06057304
 11
63.7606863071
 21
133.06057304
  0
LINE
  5
402
100
AcDbEntity
  8
SCHRAFFIERT
100
AcDbLine
 62
2
  6
CONTINUOUS
 10
63.8222216038
 20
136.5609823967
 11
63.3221631243
 21
136.5609823967
  0
LINE
  5
403
100
AcDbEntity
  8
SCHRAFFIERT
100
AcDbLine
 62
2
  6
CONTINUOUS
 10
63.3221631243
 20
136.5609823967
 11
63.572192364
 21
136.5609823967
  0
LINE
  5
404
100
AcDbEntity
  8
SCHRAFFIERT
100
AcDbLine
 62
2
  6
CONTINUOUS
 10
64.0722508436
 20
130.9645204044
 11
63.7606863071
 21
130.9836467616
  0
LINE
  5
405
100
AcDbEntity
  8
SCHRAFFIERT
100
AcDbLine
 62
2
  6
CONTINUOUS
 10
63.7606863071
 20
130.9836467616
 11
64.0722508436
 21
130.9645204044
  0
LINE
  5
406
100
AcDbEntity
  8
SCHRAFFIERT
100
AcDbLine
 62
2
  6
CONTINUOUS
 10
63.572192364
 20
138.078109437
 11
63.3221631243
 21
137.971545768
  0
LINE
  5
407
100
AcDbEntity
  8
SCHRAFFIERT
100
AcDbLine
 62
2
  6
CONTINUOUS
 10
63.3221631243
 20
137.971545768
 11
61.5719584459
 21
137.2256000857
  0
LINE
  5
408
100
AcDbEntity
  8
SCHRAFFIERT
100
AcDbLine
 62
2
  6
CONTINUOUS
 10
61.5719584459
 20
137.2256000857
 11
63.3221631243
 21
137.971545768
  0
LINE
  5
409
100
AcDbEntity
  8
SCHRAFFIERT
100
AcDbLine
 62
2
  6
CONTINUOUS
 10
63.3221631243
 20
137.971545768
 11
63.572192364
 21
138.078109437
  0
LINE
  5
40A
100
AcDbEntity
  8
SCHRAFFIERT
100
AcDbLine
 62
2
  6
CONTINUOUS
 10
63.3221631243
 20
141.561567192
 11
61.5719584459
 21
141.561567192
  0
ARC
  5
40B
100
AcDbEntity
  8
SCHRAFFIERT
100
AcDbCircle
 62
2
  6
CONTINUOUS
 10
63.9231280365
 20
125.708818654
 40
0.149122807
100
AcDbArc
 50
270.0
 51
360.0
  0
HATCH
  5
40C
100
AcDbEntity
  8
SCHRAFFIERT
100
AcDbHatch
 62
4
  6
CONTINUOUS
 10
0.0
 20
0.0
 30
0.0
210
0.0
220
0.0
230
1.0
  2
ANSI31
 70
0
 71
1
 91
3
 92
1
 93
2
 72
1
 10
63.7606863071
 20
133.06057304
 11
63.7606863071
 21
131.4833957151
 72
1
 10
63.7606863071
 20
131.4833957151
 11
63.7606863071
 21
133.06057304
 97
40
330
3E4
330
3E5
330
3E6
330
3E7
330
3E8
330
3E9
330
3EA
330
3EB
330
3EC
330
3ED
330
3EE
330
3EF
330
3F0
330
3F1
330
3F2
330
3F3
330
3F4
330
3F5
330
3F6
330
3F7
330
3F8
330
3F9
330
3FA
330
3FB
330
3FC
330
3FD
330
3FE
330
3FF
330
400
330
401
330
402
330
403
330
404
330
405
330
406
330
407
330
408
330
409
330
40A
330
40B
 92
1
 93
2
 72
1
 10
63.7606863071
 20
127.4132606833
 11
63.7606863071
 21
125.559695847
 72
1
 10
63.7606863071
 20
125.559695847
 11
63.7606863071
 21
127.4132606833
 97
40
330
3E4
330
3E5
330
3E6
330
3E7
330
3E8
330
3E9
330
3EA
330
3EB
330
3EC
330
3ED
330
3EE
330
3EF
330
3F0
330
3F1
330
3F2
330
3F3
330
3F4
330
3F5
330
3F6
330
3F7
330
3F8
330
3F9
330
3FA
330
3FB
330
3FC
330
3FD
330
3FE
330
3FF
330
400
330
401
330
402
330
403
330
404
330
405
330
406
330
407
330
408
330
409
330
40A
330
40B
 92
1
 93
2
 72
1
 10
64.0722508436
 20
130.9645204044
 11
63.7606863071
 21
130.9836467616
 72
1
 10
63.7606863071
 20
130.9836467616
 11
64.0722508436
 21
130.9645204044
 97
40
330
3E4
330
3E5
330
3E6
330
3E7
330
3E8
330
3E9
330
3EA
330
3EB
330
3EC
330
3ED
330
3EE
330
3EF
330
3F0
330
3F1
330
3F2
330
3F3
330
3F4
330
3F5
330
3F6
330
3F7
330
3F8
330
3F9
330
3FA
330
3FB
330
3FC
330
3FD
330
3FE
330
3FF
330
400
330
401
330
402
330
403
330
404
330
405
330
406
330
407
330
408
330
409
330
40A
330
40B
 75
0
 76
0
 52
135.0
 41
0.75
 77
0
 78
1
 53
135.0
 43
-3.262414765
 44
-3.262414765
 45
-0.5303300859
 46
-0.5303300859
 79
0
 98
1
 10
0.0
 20
0.0
  0
LINE
  5
40D
100
AcDbEntity
  8
010
100
AcDbLine
 62
2
  6
CONTINUOUS
 10
61.6969707361
 20
132.9270837423
 11
61.6969707361
 21
129.0601634868
  0
LINE
  5
40E
100
AcDbEntity
  8
07
100
AcDbLine
 62
7
  6
CONTINUOUS
 10
61.6969707361
 20
129.0601634868
 11
61.6969707361
 21
127.0598126096
  0
LINE
  5
40F
100
AcDbEntity
  8
010
100
AcDbLine
 62
2
  6
CONTINUOUS
 10
61.6969707361
 20
127.0598126096
 11
61.6969707361
 21
125.9695722632
  0
LINE
  5
410
100
AcDbEntity
  8
SCHRAFFIERT
100
AcDbLine
 62
2
  6
CONTINUOUS
 10
62.0466929583
 20
231.5719274492
 11
62.0466929583
 21
227.5719274492
  0
LINE
  5
411
100
AcDbEntity
  8
025
100
AcDbLine
 62
2
  6
CONTINUOUS
 10
62.2950144763
 20
204.5381996293
 11
62.2950144763
 21
204.042646043
  0
LINE
  5
412
100
AcDbEntity
  8
025
100
AcDbLine
 62
2
  6
CONTINUOUS
 10
62.2950144763
 20
203.0240081156
 11
62.2950144763
 21
202.5284545293
  0
LINE
  5
413
100
AcDbEntity
  8
025
100
AcDbLine
 62
2
  6
CONTINUOUS
 10
62.2950144763
 20
201.5098166018
 11
62.2950144763
 21
201.0142630155
  0
LINE
  5
414
100
AcDbEntity
  8
025
100
AcDbLine
 62
2
  6
CONTINUOUS
 10
62.2950144763
 20
199.9956250881
 11
62.2950144763
 21
199.5000715017
  0
LINE
  5
415
100
AcDbEntity
  8
025
100
AcDbLine
 62
2
  6
CONTINUOUS
 10
62.2950144763
 20
198.4814335743
 11
62.2950144763
 21
197.985879988
  0
LINE
  5
416
100
AcDbEntity
  8
025
100
AcDbLine
 62
2
  6
CONTINUOUS
 10
62.2950144763
 20
196.9672420605
 11
62.2950144763
 21
196.4716884742
  0
LINE
  5
417
100
AcDbEntity
  8
025
100
AcDbLine
 62
2
  6
CONTINUOUS
 10
62.2950144763
 20
193.938859033
 11
62.2950144763
 21
193.4433054467
  0
LINE
  5
418
100
AcDbEntity
  8
025
100
AcDbLine
 62
2
  6
CONTINUOUS
 10
62.2950144763
 20
192.4246675192
 11
62.2950144763
 21
191.9291139329
  0
LINE
  5
419
100
AcDbEntity
  8
025
100
AcDbLine
 62
2
  6
CONTINUOUS
 10
62.2950144763
 20
190.9104760055
 11
62.2950144763
 21
190.4149224192
  0
LINE
  5
41A
100
AcDbEntity
  8
025
100
AcDbLine
 62
2
  6
CONTINUOUS
 10
62.2950144763
 20
189.3962844917
 11
62.2950144763
 21
188.9007309054
  0
LINE
  5
41B
100
AcDbEntity
  8
025
100
AcDbLine
 62
2
  6
CONTINUOUS
 10
62.2950144763
 20
187.882092978
 11
62.2950144763
 21
187.3865393916
  0
LINE
  5
41C
100
AcDbEntity
  8
025
100
AcDbLine
 62
2
  6
CONTINUOUS
 10
62.2950144763
 20
186.3679014642
 11
62.2950144763
 21
185.8723478779
  0
LINE
  5
41D
100
AcDbEntity
  8
025
100
AcDbLine
 62
2
  6
CONTINUOUS
 10
62.2950144763
 20
184.8537099504
 11
62.2950144763
 21
184.3581563641
  0
LINE
  5
41E
100
AcDbEntity
  8
025
100
AcDbLine
 62
2
  6
CONTINUOUS
 10
62.2950144763
 20
183.3395184367
 11
62.2950144763
 21
182.8439648504
  0
LINE
  5
41F
100
AcDbEntity
  8
025
100
AcDbLine
 62
2
  6
CONTINUOUS
 10
62.2950144763
 20
181.8253269229
 11
62.2950144763
 21
181.3297733366
  0
LINE
  5
420
100
AcDbEntity
  8
025
100
AcDbLine
 62
2
  6
CONTINUOUS
 10
62.2950144763
 20
180.3111354092
 11
62.2950144763
 21
180.1488706337
  0
LINE
  5
421
100
AcDbEntity
  8
025
100
AcDbLine
 62
2
  6
CONTINUOUS
 10
62.2950144763
 20
178.7969438954
 11
62.2950144763
 21
178.3013903091
  0
LINE
  5
422
100
AcDbEntity
  8
025
100
AcDbLine
 62
2
  6
CONTINUOUS
 10
62.2950144763
 20
177.2827523816
 11
62.2950144763
 21
176.7871987953
  0
LINE
  5
423
100
AcDbEntity
  8
025
100
AcDbLine
 62
2
  6
CONTINUOUS
 10
62.2950144763
 20
175.7685608679
 11
62.2950144763
 21
175.2730072815
  0
LINE
  5
424
100
AcDbEntity
  8
025
100
AcDbLine
 62
2
  6
CONTINUOUS
 10
62.2950144763
 20
174.2543693541
 11
62.2950144763
 21
173.7588157678
  0
LINE
  5
425
100
AcDbEntity
  8
025
100
AcDbLine
 62
2
  6
CONTINUOUS
 10
62.2950144763
 20
172.7401778403
 11
62.2950144763
 21
172.244624254
  0
LINE
  5
426
100
AcDbEntity
  8
025
100
AcDbLine
 62
2
  6
CONTINUOUS
 10
62.2950144763
 20
171.2259863266
 11
62.2950144763
 21
170.7304327403
  0
LINE
  5
427
100
AcDbEntity
  8
025
100
AcDbLine
 62
2
  6
CONTINUOUS
 10
62.2950144763
 20
169.7117948128
 11
62.2950144763
 21
169.2162412265
  0
LINE
  5
428
100
AcDbEntity
  8
025
100
AcDbLine
 62
2
  6
CONTINUOUS
 10
62.2950144763
 20
168.1976032991
 11
62.2950144763
 21
167.7020497127
  0
LINE
  5
429
100
AcDbEntity
  8
025
100
AcDbLine
 62
2
  6
CONTINUOUS
 10
62.2950144763
 20
166.6834117853
 11
62.2950144763
 21
166.187858199
  0
LINE
  5
42A
100
AcDbEntity
  8
025
100
AcDbLine
 62
2
  6
CONTINUOUS
 10
62.2950144763
 20
165.1692202715
 11
62.2950144763
 21
164.6736666852
  0
LINE
  5
42B
100
AcDbEntity
  8
025
100
AcDbLine
 62
2
  6
CONTINUOUS
 10
62.2950144763
 20
163.6550287578
 11
62.2950144763
 21
163.1594751715
  0
LINE
  5
42C
100
AcDbEntity
  8
025
100
AcDbLine
 62
2
  6
CONTINUOUS
 10
62.2950144763
 20
162.140837244
 11
62.2950144763
 21
161.6452836577
  0
LINE
  5
42D
100
AcDbEntity
  8
025
100
AcDbLine
 62
2
  6
CONTINUOUS
 10
62.2950144763
 20
160.6266457303
 11
62.2950144763
 21
160.1310921439
  0
LINE
  5
42E
100
AcDbEntity
  8
025
100
AcDbLine
 62
2
  6
CONTINUOUS
 10
62.2950144763
 20
159.1124542165
 11
62.2950144763
 21
158.6169006302
  0
LINE
  5
42F
100
AcDbEntity
  8
025
100
AcDbLine
 62
2
  6
CONTINUOUS
 10
62.2950144763
 20
157.5982627027
 11
62.2950144763
 21
157.1027091164
  0
LINE
  5
430
100
AcDbEntity
  8
025
100
AcDbLine
 62
2
  6
CONTINUOUS
 10
62.2950144763
 20
156.084071189
 11
62.2950144763
 21
155.5885176026
  0
LINE
  5
431
100
AcDbEntity
  8
025
100
AcDbLine
 62
2
  6
CONTINUOUS
 10
62.2950144763
 20
154.5698796752
 11
62.2950144763
 21
154.0743260889
  0
LINE
  5
432
100
AcDbEntity
  8
025
100
AcDbLine
 62
2
  6
CONTINUOUS
 10
62.5703220242
 20
205.634345159
 11
62.5703220242
 21
204.6157072315
  0
LINE
  5
433
100
AcDbEntity
  8
025
100
AcDbLine
 62
2
  6
CONTINUOUS
 10
62.5703220242
 20
204.1201536452
 11
62.5703220242
 21
203.1015157177
  0
LINE
  5
434
100
AcDbEntity
  8
025
100
AcDbLine
 62
2
  6
CONTINUOUS
 10
62.5703220242
 20
202.6059621314
 11
62.5703220242
 21
201.587324204
  0
LINE
  5
435
100
AcDbEntity
  8
025
100
AcDbLine
 62
2
  6
CONTINUOUS
 10
62.5703220242
 20
201.0917706177
 11
62.5703220242
 21
200.0731326902
  0
LINE
  5
436
100
AcDbEntity
  8
025
100
AcDbLine
 62
2
  6
CONTINUOUS
 10
62.5703220242
 20
199.5775791039
 11
62.5703220242
 21
198.5589411765
  0
LINE
  5
437
100
AcDbEntity
  8
025
100
AcDbLine
 62
2
  6
CONTINUOUS
 10
62.5703220242
 20
198.0633875901
 11
62.5703220242
 21
197.0447496627
  0
LINE
  5
438
100
AcDbEntity
  8
025
100
AcDbLine
 62
2
  6
CONTINUOUS
 10
62.5703220242
 20
196.5491960764
 11
62.5703220242
 21
195.5305581489
  0
LINE
  5
439
100
AcDbEntity
  8
025
100
AcDbLine
 62
2
  6
CONTINUOUS
 10
62.5703220242
 20
195.0350045626
 11
62.5703220242
 21
194.0163666352
  0
LINE
  5
43A
100
AcDbEntity
  8
025
100
AcDbLine
 62
2
  6
CONTINUOUS
 10
62.5703220242
 20
193.5208130489
 11
62.5703220242
 21
192.5021751214
  0
LINE
  5
43B
100
AcDbEntity
  8
025
100
AcDbLine
 62
2
  6
CONTINUOUS
 10
62.5703220242
 20
192.0066215351
 11
62.5703220242
 21
190.9879836077
  0
LINE
  5
43C
100
AcDbEntity
  8
025
100
AcDbLine
 62
2
  6
CONTINUOUS
 10
62.5703220242
 20
190.4924300213
 11
62.5703220242
 21
189.4737920939
  0
LINE
  5
43D
100
AcDbEntity
  8
025
100
AcDbLine
 62
2
  6
CONTINUOUS
 10
62.5703220242
 20
188.9782385076
 11
62.5703220242
 21
187.9596005801
  0
LINE
  5
43E
100
AcDbEntity
  8
025
100
AcDbLine
 62
2
  6
CONTINUOUS
 10
62.5703220242
 20
187.4640469938
 11
62.5703220242
 21
186.4454090664
  0
LINE
  5
43F
100
AcDbEntity
  8
025
100
AcDbLine
 62
2
  6
CONTINUOUS
 10
62.5703220242
 20
185.9498554801
 11
62.5703220242
 21
184.9312175526
  0
LINE
  5
440
100
AcDbEntity
  8
025
100
AcDbLine
 62
2
  6
CONTINUOUS
 10
62.5703220242
 20
184.4356639663
 11
62.5703220242
 21
183.4170260389
  0
LINE
  5
441
100
AcDbEntity
  8
025
100
AcDbLine
 62
2
  6
CONTINUOUS
 10
62.5703220242
 20
182.9214724525
 11
62.5703220242
 21
181.9028345251
  0
LINE
  5
442
100
AcDbEntity
  8
025
100
AcDbLine
 62
2
  6
CONTINUOUS
 10
62.5703220242
 20
181.4072809388
 11
62.5703220242
 21
180.3886430113
  0
LINE
  5
443
100
AcDbEntity
  8
025
100
AcDbLine
 62
2
  6
CONTINUOUS
 10
62.5703220242
 20
179.0707457793
 11
62.5703220242
 21
178.8744514976
  0
LINE
  5
444
100
AcDbEntity
  8
025
100
AcDbLine
 62
2
  6
CONTINUOUS
 10
62.5703220242
 20
178.3788979112
 11
62.5703220242
 21
177.3602599838
  0
LINE
  5
445
100
AcDbEntity
  8
025
100
AcDbLine
 62
2
  6
CONTINUOUS
 10
62.5703220242
 20
176.8647063975
 11
62.5703220242
 21
175.84606847
  0
LINE
  5
446
100
AcDbEntity
  8
025
100
AcDbLine
 62
2
  6
CONTINUOUS
 10
62.5703220242
 20
175.3505148837
 11
62.5703220242
 21
174.3318769563
  0
LINE
  5
447
100
AcDbEntity
  8
025
100
AcDbLine
 62
2
  6
CONTINUOUS
 10
62.5703220242
 20
173.83632337
 11
62.5703220242
 21
172.8176854425
  0
LINE
  5
448
100
AcDbEntity
  8
025
100
AcDbLine
 62
2
  6
CONTINUOUS
 10
62.5703220242
 20
172.3221318562
 11
62.5703220242
 21
171.3034939288
  0
LINE
  5
449
100
AcDbEntity
  8
025
100
AcDbLine
 62
2
  6
CONTINUOUS
 10
62.5703220242
 20
170.8079403424
 11
62.5703220242
 21
169.789302415
  0
LINE
  5
44A
100
AcDbEntity
  8
025
100
AcDbLine
 62
2
  6
CONTINUOUS
 10
62.5703220242
 20
169.2937488287
 11
62.5703220242
 21
168.2751109012
  0
LINE
  5
44B
100
AcDbEntity
  8
025
100
AcDbLine
 62
2
  6
CONTINUOUS
 10
62.5703220242
 20
167.7795573149
 11
62.5703220242
 21
166.7609193875
  0
LINE
  5
44C
100
AcDbEntity
  8
025
100
AcDbLine
 62
2
  6
CONTINUOUS
 10
62.5703220242
 20
166.2653658012
 11
62.5703220242
 21
165.2467278737
  0
LINE
  5
44D
100
AcDbEntity
  8
025
100
AcDbLine
 62
2
  6
CONTINUOUS
 10
62.5703220242
 20
164.7511742874
 11
62.5703220242
 21
163.73253636
  0
LINE
  5
44E
100
AcDbEntity
  8
025
100
AcDbLine
 62
2
  6
CONTINUOUS
 10
62.5703220242
 20
163.2369827736
 11
62.5703220242
 21
162.2183448462
  0
LINE
  5
44F
100
AcDbEntity
  8
025
100
AcDbLine
 62
2
  6
CONTINUOUS
 10
62.5703220242
 20
161.7227912599
 11
62.5703220242
 21
160.7041533324
  0
LINE
  5
450
100
AcDbEntity
  8
025
100
AcDbLine
 62
2
  6
CONTINUOUS
 10
62.5703220242
 20
160.2085997461
 11
62.5703220242
 21
159.1899618187
  0
LINE
  5
451
100
AcDbEntity
  8
025
100
AcDbLine
 62
2
  6
CONTINUOUS
 10
62.5703220242
 20
158.6944082323
 11
62.5703220242
 21
157.6757703049
  0
LINE
  5
452
100
AcDbEntity
  8
025
100
AcDbLine
 62
2
  6
CONTINUOUS
 10
62.5703220242
 20
157.1802167186
 11
62.5703220242
 21
156.1615787911
  0
LINE
  5
453
100
AcDbEntity
  8
025
100
AcDbLine
 62
2
  6
CONTINUOUS
 10
62.5703220242
 20
155.6660252048
 11
62.5703220242
 21
154.6473872774
  0
LINE
  5
454
100
AcDbEntity
  8
025
100
AcDbLine
 62
2
  6
CONTINUOUS
 10
62.5703220242
 20
154.1518336911
 11
62.5703220242
 21
154.0609822002
  0
LINE
  5
455
100
AcDbEntity
  8
SCHRAFFIERT
100
AcDbLine
 62
2
  6
CONTINUOUS
 10
62.9966929583
 20
231.5719274492
 11
62.9966929583
 21
227.5719274492
  0
LINE
  5
456
100
AcDbEntity
  8
07
100
AcDbLine
 62
7
  6
CONTINUOUS
 10
63.0471286308
 20
125.836083162
 11
63.0471286308
 21
125.5596956505
  0
LINE
  5
457
100
AcDbEntity
  8
05
100
AcDbLine
 62
7
  6
CONTINUOUS
 10
63.2591929583
 20
233.5974487895
 11
63.2591929583
 21
239.134345159
  0
LINE
  5
458
100
AcDbEntity
  8
010
100
AcDbLine
 62
2
  6
CONTINUOUS
 10
63.2971578706
 20
120.5841137792
 11
63.2971578706
 21
125.5346927266
  0
LINE
  5
459
100
AcDbEntity
  8
010
100
AcDbLine
 62
2
  6
CONTINUOUS
 10
63.3221607946
 20
141.5615669956
 11
63.3221607946
 21
136.5609822002
  0
LINE
  5
45A
100
AcDbEntity
  8
010
100
AcDbLine
 62
2
  6
CONTINUOUS
 10
63.3266929583
 20
221.734345159
 11
63.3266929583
 21
219.6123985153
  0
LINE
  5
45B
100
AcDbEntity
  8
07
100
AcDbLine
 62
7
  6
CONTINUOUS
 10
63.3536704743
 20
133.0605728435
 11
63.3536704743
 21
131.7377789582
  0
LINE
  5
45C
100
AcDbEntity
  8
07
100
AcDbLine
 62
7
  6
CONTINUOUS
 10
63.3536704743
 20
127.1588770473
 11
63.3536704743
 21
125.5596956505
  0
LINE
  5
45D
100
AcDbEntity
  8
010
100
AcDbLine
 62
2
  6
CONTINUOUS
 10
63.4363450921
 20
131.7377789582
 11
63.4363450921
 21
127.1588770473
  0
LINE
  5
45E
100
AcDbEntity
  8
05
100
AcDbLine
 62
7
  6
CONTINUOUS
 10
63.4363450921
 20
127.1588770473
 11
63.4363450921
 21
125.5596956505
  0
LINE
  5
45F
100
AcDbEntity
  8
05
100
AcDbLine
 62
7
  6
CONTINUOUS
 10
63.4363450921
 20
131.7377789582
 11
63.4363450921
 21
133.0605728435
  0
LINE
  5
460
100
AcDbEntity
  8
07
100
AcDbLine
 62
7
  6
CONTINUOUS
 10
63.5721900344
 20
141.3115377558
 11
63.5721900344
 21
136.5609822002
  0
LINE
  5
461
100
AcDbEntity
  8
07
100
AcDbLine
 62
7
  6
CONTINUOUS
 10
63.5721900344
 20
120.8591459429
 11
63.5721900344
 21
125.2596605628
  0
LINE
  5
462
100
AcDbEntity
  8
010
100
AcDbLine
 62
2
  6
CONTINUOUS
 10
63.5966929583
 20
219.8823985153
 11
63.5966929583
 21
219.4438788022
  0
LINE
  5
463
100
AcDbEntity
  8
05
100
AcDbLine
 62
7
  6
CONTINUOUS
 10
63.5966929583
 20
137.9609822002
 11
63.5966929583
 21
136.6609822002
  0
LINE
  5
464
100
AcDbEntity
  8
05
100
AcDbLine
 62
7
  6
CONTINUOUS
 10
63.5966929583
 20
219.8823985153
 11
63.5966929583
 21
223.134345159
  0
LINE
  5
465
100
AcDbEntity
  8
05
100
AcDbLine
 62
7
  6
CONTINUOUS
 10
63.7216929583
 20
219.1534050513
 11
63.7216929583
 21
218.284345159
  0
LINE
  5
466
100
AcDbEntity
  8
05
100
AcDbLine
 62
7
  6
CONTINUOUS
 10
63.7216929583
 20
140.5419223079
 11
63.7216929583
 21
141.4109822002
  0
LINE
  5
467
100
AcDbEntity
  8
07
100
AcDbLine
 62
7
  6
CONTINUOUS
 10
63.7606839774
 20
131.4833955187
 11
63.7606839774
 21
127.4132604868
  0
LINE
  5
468
100
AcDbEntity
  8
010
100
AcDbLine
 62
2
  6
CONTINUOUS
 10
63.7606839774
 20
127.4132604868
 11
63.7606839774
 21
125.5596956505
  0
LINE
  5
469
100
AcDbEntity
  8
010
100
AcDbLine
 62
2
  6
CONTINUOUS
 10
63.7606839774
 20
131.4833955187
 11
63.7606839774
 21
133.0605728435
  0
LINE
  5
46A
100
AcDbEntity
  8
SCHRAFFIERT
100
AcDbLine
 62
2
  6
CONTINUOUS
 10
63.7966929583
 20
231.5719274492
 11
63.7966929583
 21
227.5719274492
  0
LINE
  5
46B
100
AcDbEntity
  8
05
100
AcDbLine
 62
7
  6
CONTINUOUS
 10
64.0716929583
 20
223.134345159
 11
64.0716929583
 21
215.634345159
  0
LINE
  5
46C
100
AcDbEntity
  8
05
100
AcDbLine
 62
7
  6
CONTINUOUS
 10
64.0716929583
 20
136.5609822002
 11
64.0716929583
 21
144.0609822002
  0
LINE
  5
46D
100
AcDbEntity
  8
05
100
AcDbLine
 62
7
  6
CONTINUOUS
 10
64.0716929108
 20
223.3843451565
 11
64.0716929108
 21
225.5527047294
  0
LINE
  5
46E
100
AcDbEntity
  8
07
100
AcDbLine
 62
7
  6
CONTINUOUS
 10
64.0722485139
 20
136.3109529605
 11
64.0722485139
 21
125.7088184575
  0
LINE
  5
46F
100
AcDbEntity
  8
SCHRAFFIERT
100
AcDbLine
 62
2
  6
CONTINUOUS
 10
64.3966929583
 20
231.5719274492
 11
64.3966929583
 21
227.5719274492
  0
LINE
  5
470
100
AcDbEntity
  8
SCHRAFFIERT
100
AcDbLine
 62
2
  6
CONTINUOUS
 10
64.8966929583
 20
231.5719274492
 11
64.8966929583
 21
227.5719274492
  0
LINE
  5
471
100
AcDbEntity
  8
SCHRAFFIERT
100
AcDbLine
 62
2
  6
CONTINUOUS
 10
65.2466929583
 20
231.5719274492
 11
65.2466929583
 21
227.5719274492
  0
LINE
  5
472
100
AcDbEntity
  8
05
100
AcDbLine
 62
7
  6
CONTINUOUS
 10
65.3216929583
 20
232.6719274492
 11
65.3216929583
 21
231.5719274492
  0
LINE
  5
473
100
AcDbEntity
  8
05
100
AcDbLine
 62
7
  6
CONTINUOUS
 10
65.3216929583
 20
227.5719274492
 11
65.3216929583
 21
225.9719274492
  0
LINE
  5
474
100
AcDbEntity
  8
SCHRAFFIERT
100
AcDbLine
 62
2
  6
CONTINUOUS
 10
65.4966929583
 20
231.3969274492
 11
65.4966929583
 21
227.7469274492
  0
LINE
  5
475
100
AcDbEntity
  8
05
100
AcDbLine
 62
7
  6
CONTINUOUS
 10
65.6216929583
 20
231.2719274492
 11
65.6216929583
 21
227.8719274492
  0
LINE
  5
476
100
AcDbEntity
  8
0
100
AcDbLine
 62
2
  6
CONTINUOUS
 10
66.0703220242
 20
170.4766839701
 11
66.0703220242
 21
169.3100173034
  0
LINE
  5
477
100
AcDbEntity
  8
0
100
AcDbLine
 62
2
  6
CONTINUOUS
 10
66.0703220242
 20
169.3100173034
 11
62.5703220242
 21
169.8933506368
  0
LINE
  5
478
100
AcDbEntity
  8
0
100
AcDbLine
 62
2
  6
CONTINUOUS
 10
62.5703220242
 20
169.8933506368
 11
66.0703220242
 21
170.4766839701
  0
HATCH
  5
479
100
AcDbEntity
  8
0
100
AcDbHatch
 62
2
  6
CONTINUOUS
 10
0.0
 20
0.0
 30
0.0
210
0.0
220
0.0
230
1.0
  2

 70
1
 71
1
 91
1
 92
1
 93
3
 72
1
 10
66.0703220242
 20
169.3100173034
 11
62.5703220242
 21
169.8933506368
 72
1
 10
62.5703220242
 20
169.8933506368
 11
66.0703220242
 21
170.4766839701
 72
1
 10
66.0703220242
 20
170.4766839701
 11
66.0703220242
 21
169.3100173034
 97
3
330
476
330
477
330
478
 75
0
 76
1
 98
1
 10
0.0
 20
0.0
  0
LINE
  5
47A
100
AcDbEntity
  8
05
100
AcDbLine
 62
7
  6
CONTINUOUS
 10
64.0716929583
 20
215.661820542
 11
63.5710077257
 21
206.1081771808
  0
LINE
  5
47B
100
AcDbEntity
  8
0
100
AcDbLine
 62
2
  6
CONTINUOUS
 10
78.949643253
 20
219.634345159
 11
79.5329765863
 21
223.134345159
  0
LINE
  5
47C
100
AcDbEntity
  8
0
100
AcDbLine
 62
2
  6
CONTINUOUS
 10
79.5329765863
 20
223.134345159
 11
80.1163099196
 21
219.634345159
  0
LINE
  5
47D
100
AcDbEntity
  8
0
100
AcDbLine
 62
2
  6
CONTINUOUS
 10
80.1163099196
 20
219.634345159
 11
78.949643253
 21
219.634345159
  0
HATCH
  5
47E
100
AcDbEntity
  8
0
100
AcDbHatch
 62
2
  6
CONTINUOUS
 10
0.0
 20
0.0
 30
0.0
210
0.0
220
0.0
230
1.0
  2

 70
1
 71
1
 91
1
 92
1
 93
3
 72
1
 10
79.5329765863
 20
223.134345159
 11
80.1163099196
 21
219.634345159
 72
1
 10
80.1163099196
 20
219.634345159
 11
78.949643253
 21
219.634345159
 72
1
 10
78.949643253
 20
219.634345159
 11
79.5329765863
 21
223.134345159
 97
3
330
47B
330
47C
330
47D
 75
0
 76
1
 98
1
 10
0.0
 20
0.0
  0
LINE
  5
47F
100
AcDbEntity
  8
035
100
AcDbLine
 62
7
  6
CONTINUOUS
 10
118.8364293122
 20
249.6545393144
 11
119.9261306625
 21
251.5419574182
  0
LINE
  5
480
100
AcDbEntity
  8
05
100
AcDbLine
 62
7
  6
CONTINUOUS
 10
140.4011306625
 20
237.1303720636
 11
139.8011306625
 21
236.5303720636
  0
LINE
  5
481
100
AcDbEntity
  8
05
100
AcDbLine
 62
7
  6
CONTINUOUS
 10
136.3011305775
 20
218.155207508
 11
135.4351051737
 21
217.655207508
  0
LINE
  5
482
100
AcDbEntity
  8
0
100
AcDbLine
 62
2
  6
CONTINUOUS
 10
129.2870460765
 20
111.6183740089
 11
132.7870460765
 21
112.2017073423
  0
LINE
  5
483
100
AcDbEntity
  8
0
100
AcDbLine
 62
2
  6
CONTINUOUS
 10
132.7870460765
 20
112.2017073423
 11
129.2870460765
 21
112.7850406756
  0
LINE
  5
484
100
AcDbEntity
  8
0
100
AcDbLine
 62
2
  6
CONTINUOUS
 10
129.2870460765
 20
112.7850406756
 11
129.2870460765
 21
111.6183740089
  0
HATCH
  5
485
100
AcDbEntity
  8
0
100
AcDbHatch
 62
2
  6
CONTINUOUS
 10
0.0
 20
0.0
 30
0.0
210
0.0
220
0.0
230
1.0
  2

 70
1
 71
1
 91
1
 92
1
 93
3
 72
1
 10
132.7870460765
 20
112.2017073423
 11
129.2870460765
 21
112.7850406756
 72
1
 10
129.2870460765
 20
112.7850406756
 11
129.2870460765
 21
111.6183740089
 72
1
 10
129.2870460765
 20
111.6183740089
 11
132.7870460765
 21
112.2017073423
 97
3
330
482
330
483
330
484
 75
0
 76
1
 98
1
 10
0.0
 20
0.0
  0
LINE
  5
486
100
AcDbEntity
  8
0
100
AcDbLine
 62
2
  6
CONTINUOUS
 10
126.550575107
 20
102.3158481031
 11
129.0516862181
 21
102.3158481031
  0
LINE
  5
487
100
AcDbEntity
  8
0
100
AcDbLine
 62
2
  6
CONTINUOUS
 10
129.2870460765
 20
112.2017073423
 11
122.1252905287
 21
112.2017073423
  0
LINE
  5
488
100
AcDbEntity
  8
025
100
AcDbLine
 62
2
  6
CONTINUOUS
 10
61.7617477216
 20
122.1519896402
 11
122.9799195269
 21
82.6247314608
  0
LINE
  5
489
100
AcDbEntity
  8
07
100
AcDbLine
 62
7
  6
CONTINUOUS
 10
61.8304598373
 20
125.836083162
 11
61.3216929583
 21
126.344850041
  0
LINE
  5
48A
100
AcDbEntity
  8
07
100
AcDbLine
 62
7
  6
CONTINUOUS
 10
63.5721900344
 20
125.2596605628
 11
63.2721549466
 21
125.5596956505
  0
LINE
  5
48B
100
AcDbEntity
  8
07
100
AcDbLine
 62
7
  6
CONTINUOUS
 10
61.1969707361
 20
129.5601634868
 11
61.6969707361
 21
129.0601634868
  0
LINE
  5
48C
100
AcDbEntity
  8
07
100
AcDbLine
 62
7
  6
CONTINUOUS
 10
63.5063005379
 20
131.7377789582
 11
63.7606839774
 21
131.4833955187
  0
LINE
  5
48D
100
AcDbEntity
  8
07
100
AcDbLine
 62
7
  6
CONTINUOUS
 10
63.3536704743
 20
132.9333811238
 11
63.2264787545
 21
133.0605728435
  0
LINE
  5
48E
100
AcDbEntity
  8
07
100
AcDbLine
 62
7
  6
CONTINUOUS
 10
119.9002066859
 20
77.6516888592
 11
119.3001365105
 21
78.2517590346
  0
LINE
  5
48F
100
AcDbEntity
  8
05
100
AcDbLine
 62
7
  6
CONTINUOUS
 10
63.6966929583
 20
136.5609822002
 11
63.5966929583
 21
136.6609822002
  0
LINE
  5
490
100
AcDbEntity
  8
07
100
AcDbLine
 62
7
  6
CONTINUOUS
 10
63.8222192741
 20
136.5609822002
 11
64.0722485139
 21
136.3109529605
  0
LINE
  5
491
100
AcDbEntity
  8
0
100
AcDbLine
 62
2
  6
CONTINUOUS
 10
79.5329765863
 20
138.3109822002
 11
79.5329765863
 21
221.384345159
  0
LINE
  5
492
100
AcDbEntity
  8
0
100
AcDbLine
 62
2
  6
CONTINUOUS
 10
79.5329765863
 20
136.5609822002
 11
80.1163099196
 21
140.0609822002
  0
LINE
  5
493
100
AcDbEntity
  8
0
100
AcDbLine
 62
2
  6
CONTINUOUS
 10
78.949643253
 20
140.0609822002
 11
79.5329765863
 21
136.5609822002
  0
LINE
  5
494
100
AcDbEntity
  8
0
100
AcDbLine
 62
2
  6
CONTINUOUS
 10
80.1163099196
 20
140.0609822002
 11
78.949643253
 21
140.0609822002
  0
HATCH
  5
495
100
AcDbEntity
  8
0
100
AcDbHatch
 62
2
  6
CONTINUOUS
 10
0.0
 20
0.0
 30
0.0
210
0.0
220
0.0
230
1.0
  2

 70
1
 71
1
 91
1
 92
1
 93
3
 72
1
 10
80.1163099196
 20
140.0609822002
 11
78.949643253
 21
140.0609822002
 72
1
 10
78.949643253
 20
140.0609822002
 11
79.5329765863
 21
136.5609822002
 72
1
 10
79.5329765863
 20
136.5609822002
 11
80.1163099196
 21
140.0609822002
 97
3
330
492
330
493
330
494
 75
0
 76
1
 98
1
 10
0.0
 20
0.0
  0
LINE
  5
496
100
AcDbEntity
  8
07
100
AcDbLine
 62
7
  6
CONTINUOUS
 10
54.8211666425
 20
136.5609822002
 11
54.5711374028
 21
136.3109529605
  0
LINE
  5
497
100
AcDbEntity
  8
07
100
AcDbLine
 62
7
  6
CONTINUOUS
 10
134.6694835288
 20
120.2484707969
 11
128.9204177963
 21
120.2484707969
  0
LINE
  5
498
100
AcDbEntity
  8
07
100
AcDbLine
 62
7
  6
CONTINUOUS
 10
126.6818435288
 20
120.2484707969
 11
120.9327777963
 21
120.2484707969
  0
LINE
  5
499
100
AcDbEntity
  8
025
100
AcDbLine
 62
2
  6
CONTINUOUS
 10
120.6783943568
 20
120.5028542364
 11
126.6818435288
 21
120.5028542364
  0
LINE
  5
49A
100
AcDbEntity
  8
07
100
AcDbLine
 62
7
  6
CONTINUOUS
 10
63.2721549466
 20
120.5591108552
 11
55.37123097
 21
120.5591108552
  0
LINE
  5
49B
100
AcDbEntity
  8
025
100
AcDbLine
 62
2
  6
CONTINUOUS
 10
59.3216929583
 20
120.8591459429
 11
55.0711958823
 21
120.8591459429
  0
LINE
  5
49C
100
AcDbEntity
  8
07
100
AcDbLine
 62
7
  6
CONTINUOUS
 10
131.7695123186
 20
121.2660045549
 11
128.9204177963
 21
121.2660045549
  0
LINE
  5
49D
100
AcDbEntity
  8
07
100
AcDbLine
 62
7
  6
CONTINUOUS
 10
135.2291270956
 20
122.8940585676
 11
134.9238669682
 21
122.8940585676
  0
LINE
  5
49E
100
AcDbEntity
  8
07
100
AcDbLine
 62
7
  6
CONTINUOUS
 10
128.9204177963
 20
122.8940585676
 11
120.3731342294
 21
122.8940585676
  0
LINE
  5
49F
100
AcDbEntity
  8
025
100
AcDbLine
 62
2
  6
CONTINUOUS
 10
119.8643673504
 20
123.4028254466
 11
127.8011306625
 21
123.4028254466
  0
LINE
  5
4A0
100
AcDbEntity
  8
025
100
AcDbLine
 62
2
  6
CONTINUOUS
 10
55.0711958823
 20
125.2596605628
 11
59.3216929583
 21
125.2596605628
  0
LINE
  5
4A1
100
AcDbEntity
  8
07
100
AcDbLine
 62
7
  6
CONTINUOUS
 10
59.3216929583
 20
125.5596956505
 11
54.7202602098
 21
125.5596956505
  0
LINE
  5
4A2
100
AcDbEntity
  8
07
100
AcDbLine
 62
7
  6
CONTINUOUS
 10
61.0716929583
 20
125.5596956505
 11
63.9231257069
 21
125.5596956505
  0
LINE
  5
4A3
100
AcDbEntity
  8
05
100
AcDbLine
 62
7
  6
CONTINUOUS
 10
63.5966929583
 20
137.9609822002
 11
63.5721900344
 21
137.97512897
  0
LINE
  5
4A4
100
AcDbEntity
  8
05
100
AcDbLine
 62
7
  6
CONTINUOUS
 10
61.3216929583
 20
143.0609822002
 11
62.5716929583
 21
141.8109822002
  0
LINE
  5
4A5
100
AcDbEntity
  8
07
100
AcDbLine
 62
7
  6
CONTINUOUS
 10
63.5721900344
 20
141.3115377558
 11
63.3221607946
 21
141.5615669956
  0
LINE
  5
4A6
100
AcDbEntity
  8
07
100
AcDbLine
 62
7
  6
CONTINUOUS
 10
124.3011306625
 20
89.4025368124
 11
123.050575107
 21
90.653092368
  0
LINE
  5
4A7
100
AcDbEntity
  8
07
100
AcDbLine
 62
7
  6
CONTINUOUS
 10
61.8304598373
 20
133.0605728435
 11
61.3216929583
 21
132.5518059645
  0
LINE
  5
4A8
100
AcDbEntity
  8
07
100
AcDbLine
 62
7
  6
CONTINUOUS
 10
55.0711958823
 20
125.2596605628
 11
55.37123097
 21
125.5596956505
  0
LINE
  5
4A9
100
AcDbEntity
  8
07
100
AcDbLine
 62
7
  6
CONTINUOUS
 10
119.3001365105
 20
185.5423803869
 11
119.80019499
 21
186.0424388664
  0
LINE
  5
4AA
100
AcDbEntity
  8
07
100
AcDbLine
 62
7
  6
CONTINUOUS
 10
61.6969707361
 20
127.0598126096
 11
61.0716929583
 21
126.4345348318
  0
LINE
  5
4AB
100
AcDbEntity
  8
07
100
AcDbLine
 62
7
  6
CONTINUOUS
 10
63.5063005379
 20
127.1588770473
 11
63.7606839774
 21
127.4132604868
  0
LINE
  5
4AC
100
AcDbEntity
  8
07
100
AcDbLine
 62
7
  6
CONTINUOUS
 10
63.3536704743
 20
125.9632748817
 11
63.2264787545
 21
125.836083162
  0
LINE
  5
4AD
100
AcDbEntity
  8
05
100
AcDbLine
 62
7
  6
CONTINUOUS
 10
62.2813039126
 20
145.1046508719
 11
61.3216929583
 21
144.5506192292
  0
LINE
  5
4AE
100
AcDbEntity
  8
0
100
AcDbLine
 62
2
  6
CONTINUOUS
 10
132.2378939746
 20
140.9874420615
 11
135.7378939746
 21
141.5707753948
  0
LINE
  5
4AF
100
AcDbEntity
  8
0
100
AcDbLine
 62
2
  6
CONTINUOUS
 10
135.7378939746
 20
141.5707753948
 11
132.2378939746
 21
142.1541087281
  0
LINE
  5
4B0
100
AcDbEntity
  8
0
100
AcDbLine
 62
2
  6
CONTINUOUS
 10
132.2378939746
 20
142.1541087281
 11
132.2378939746
 21
140.9874420615
  0
HATCH
  5
4B1
100
AcDbEntity
  8
0
100
AcDbHatch
 62
2
  6
CONTINUOUS
 10
0.0
 20
0.0
 30
0.0
210
0.0
220
0.0
230
1.0
  2

 70
1
 71
1
 91
1
 92
1
 93
3
 72
1
 10
135.7378939746
 20
141.5707753948
 11
132.2378939746
 21
142.1541087281
 72
1
 10
132.2378939746
 20
142.1541087281
 11
132.2378939746
 21
140.9874420615
 72
1
 10
132.2378939746
 20
140.9874420615
 11
135.7378939746
 21
141.5707753948
 97
3
330
4AE
330
4AF
330
4B0
 75
0
 76
1
 98
1
 10
0.0
 20
0.0
  0
LINE
  5
4B2
100
AcDbEntity
  8
07
100
AcDbLine
 62
7
  6
CONTINUOUS
 10
63.2264787545
 20
125.836083162
 11
61.0716929583
 21
125.836083162
  0
LINE
  5
4B3
100
AcDbEntity
  8
07
100
AcDbLine
 62
7
  6
CONTINUOUS
 10
63.5063005379
 20
127.1588770473
 11
63.3536704743
 21
127.1588770473
  0
LINE
  5
4B4
100
AcDbEntity
  8
07
100
AcDbLine
 62
7
  6
CONTINUOUS
 10
61.1969707361
 20
129.5601634868
 11
59.3216929583
 21
129.5601634868
  0
LINE
  5
4B5
100
AcDbEntity
  8
025
100
AcDbLine
 62
2
  6
CONTINUOUS
 10
119.8643673504
 20
131.5430955103
 11
127.8011306625
 21
131.5430955103
  0
LINE
  5
4B6
100
AcDbEntity
  8
07
100
AcDbLine
 62
7
  6
CONTINUOUS
 10
63.5063005379
 20
131.7377789582
 11
63.3536704743
 21
131.7377789582
  0
LINE
  5
4B7
100
AcDbEntity
  8
07
100
AcDbLine
 62
7
  6
CONTINUOUS
 10
135.2291270956
 20
132.0518623893
 11
134.9238669682
 21
132.0518623893
  0
LINE
  5
4B8
100
AcDbEntity
  8
07
100
AcDbLine
 62
7
  6
CONTINUOUS
 10
127.8011306625
 20
132.0518623893
 11
120.3731342294
 21
132.0518623893
  0
LINE
  5
4B9
100
AcDbEntity
  8
07
100
AcDbLine
 62
7
  6
CONTINUOUS
 10
61.3216929583
 20
132.5518059645
 11
59.3216929583
 21
132.5518059645
  0
LINE
  5
4BA
100
AcDbEntity
  8
05
100
AcDbLine
 62
7
  6
CONTINUOUS
 10
59.3216929583
 20
132.5609822002
 11
58.7263934967
 21
132.5609822002
  0
LINE
  5
4BB
100
AcDbEntity
  8
07
100
AcDbLine
 62
7
  6
CONTINUOUS
 10
63.7606839774
 20
133.0605728435
 11
59.3216929583
 21
133.0605728435
  0
LINE
  5
4BC
100
AcDbEntity
  8
07
100
AcDbLine
 62
7
  6
CONTINUOUS
 10
131.7695123186
 20
133.679916402
 11
127.8011306625
 21
133.679916402
  0
LINE
  5
4BD
100
AcDbEntity
  8
025
100
AcDbLine
 62
2
  6
CONTINUOUS
 10
120.6783943568
 20
134.4430667205
 11
127.8011306625
 21
134.4430667205
  0
LINE
  5
4BE
100
AcDbEntity
  8
07
100
AcDbLine
 62
7
  6
CONTINUOUS
 10
134.6694835288
 20
134.69745016
 11
120.9327777963
 21
134.69745016
  0
LINE
  5
4BF
100
AcDbEntity
  8
05
100
AcDbLine
 62
7
  6
CONTINUOUS
 10
59.3216929583
 20
135.0609822002
 11
58.7263934967
 21
135.0609822002
  0
LINE
  5
4C0
100
AcDbEntity
  8
025
100
AcDbLine
 62
2
  6
CONTINUOUS
 10
54.7404146542
 20
136.3109529605
 11
55.0227538355
 21
136.3109529605
  0
LINE
  5
4C1
100
AcDbEntity
  8
025
100
AcDbLine
 62
2
  6
CONTINUOUS
 10
55.3528123151
 20
136.3109529605
 11
57.5716929583
 21
136.3109529605
  0
LINE
  5
4C2
100
AcDbEntity
  8
07
100
AcDbLine
 62
7
  6
CONTINUOUS
 10
58.1879592255
 20
136.5609822002
 11
54.8211666425
 21
136.5609822002
  0
LINE
  5
4C3
100
AcDbEntity
  8
05
100
AcDbLine
 62
7
  6
CONTINUOUS
 10
59.3216929583
 20
136.5609822002
 11
54.5716929583
 21
136.5609822002
  0
LINE
  5
4C4
100
AcDbEntity
  8
0
100
AcDbLine
 62
2
  6
CONTINUOUS
 10
53.9225553289
 20
136.5609822002
 11
47.3387334093
 21
136.5609822002
  0
LINE
  5
4C5
100
AcDbEntity
  8
05
100
AcDbLine
 62
7
  6
CONTINUOUS
 10
63.3221607946
 20
136.5609822002
 11
64.0716929583
 21
136.5609822002
  0
LINE
  5
4C6
100
AcDbEntity
  8
0
100
AcDbLine
 62
2
  6
CONTINUOUS
 10
64.4716929583
 20
136.5609822002
 11
79.9329765863
 21
136.5609822002
  0
LINE
  5
4C7
100
AcDbEntity
  8
05
100
AcDbLine
 62
7
  6
CONTINUOUS
 10
63.5966929583
 20
136.6609822002
 11
63.5721900344
 21
136.6609822002
  0
LINE
  5
4C8
100
AcDbEntity
  8
025
100
AcDbLine
 62
2
  6
CONTINUOUS
 10
123.9848618188
 20
127.2865982693
 11
60.7703120464
 21
131.1672198384
  0
LINE
  5
4C9
100
AcDbEntity
  8
025
100
AcDbLine
 62
2
  6
CONTINUOUS
 10
62.9078983853
 20
144.9207308216
 11
62.2813039126
 21
145.1046508719
  0
LINE
  5
4CA
100
AcDbEntity
  8
025
100
AcDbLine
 62
2
  6
CONTINUOUS
 10
60.3378360288
 20
145.0049573057
 11
59.3216929583
 21
145.3208071428
  0
LINE
  5
4CB
100
AcDbEntity
  8
07
100
AcDbLine
 62
7
  6
CONTINUOUS
 10
136.3021248146
 20
87.0527882744
 11
135.7020546391
 21
87.6528584498
  0
LINE
  5
4CC
100
AcDbEntity
  8
07
100
AcDbLine
 62
7
  6
CONTINUOUS
 10
131.5516862181
 20
95.6537941223
 11
132.5516862181
 21
94.6537941223
  0
LINE
  5
4CD
100
AcDbEntity
  8
025
100
AcDbLine
 62
2
  6
CONTINUOUS
 10
57.5602752665
 20
180.5191387891
 11
57.1261152634
 21
181.0020282282
  0
LINE
  5
4CE
100
AcDbEntity
  8
025
100
AcDbLine
 62
2
  6
CONTINUOUS
 10
57.5602752665
 20
181.3450614329
 11
57.1261152634
 21
181.827950872
  0
LINE
  5
4CF
100
AcDbEntity
  8
025
100
AcDbLine
 62
2
  6
CONTINUOUS
 10
59.6583940895
 20
179.8294933814
 11
59.3690458566
 21
180.243280626
  0
LINE
  5
4D0
100
AcDbEntity
  8
025
100
AcDbLine
 62
2
  6
CONTINUOUS
 10
59.6583940895
 20
180.6554160253
 11
59.3690458566
 21
181.0692032699
  0
LINE
  5
4D1
100
AcDbEntity
  8
07
100
AcDbLine
 62
7
  6
CONTINUOUS
 10
63.5721900344
 20
120.8591459429
 11
63.2721549466
 21
120.5591108552
  0
LINE
  5
4D2
100
AcDbEntity
  8
07
100
AcDbLine
 62
7
  6
CONTINUOUS
 10
118.8000780309
 20
176.0412692758
 11
118.3000195514
 21
175.5412107963
  0
LINE
  5
4D3
100
AcDbEntity
  8
SCHRAFFIERT
100
AcDbLine
 62
2
  6
CONTINUOUS
 10
132.3016569783
 20
185.6992820559
 11
132.6448137889
 21
186.0424388664
  0
LINE
  5
4D4
100
AcDbEntity
  8
SCHRAFFIERT
100
AcDbLine
 62
2
  6
CONTINUOUS
 10
132.3016569783
 20
184.1175958348
 11
134.22650001
 21
186.0424388664
  0
LINE
  5
4D5
100
AcDbEntity
  8
SCHRAFFIERT
100
AcDbLine
 62
2
  6
CONTINUOUS
 10
132.3016569783
 20
182.5359096137
 11
135.805126283
 21
186.0393789184
  0
LINE
  5
4D6
100
AcDbEntity
  8
SCHRAFFIERT
100
AcDbLine
 62
2
  6
CONTINUOUS
 10
132.3016569783
 20
180.9542233926
 11
136.3021248146
 21
184.9546912289
  0
LINE
  5
4D7
100
AcDbEntity
  8
SCHRAFFIERT
100
AcDbLine
 62
2
  6
CONTINUOUS
 10
132.3016569783
 20
179.3725371716
 11
136.3021248146
 21
183.3730050078
  0
LINE
  5
4D8
100
AcDbEntity
  8
SCHRAFFIERT
100
AcDbLine
 62
2
  6
CONTINUOUS
 10
132.3016569783
 20
177.7908509505
 11
136.3021248146
 21
181.7913187867
  0
LINE
  5
4D9
100
AcDbEntity
  8
SCHRAFFIERT
100
AcDbLine
 62
2
  6
CONTINUOUS
 10
132.3016569783
 20
176.2091647294
 11
136.3021248146
 21
180.2096325657
  0
LINE
  5
4DA
100
AcDbEntity
  8
SCHRAFFIERT
100
AcDbLine
 62
2
  6
CONTINUOUS
 10
132.3016569783
 20
174.6274785083
 11
135.6020429432
 21
177.9278644732
  0
LINE
  5
4DB
100
AcDbEntity
  8
SCHRAFFIERT
100
AcDbLine
 62
2
  6
CONTINUOUS
 10
135.7156816639
 20
178.0415031939
 11
136.3021248146
 21
178.6279463446
  0
LINE
  5
4DC
100
AcDbEntity
  8
025
100
AcDbLine
 62
2
  6
CONTINUOUS
 10
55.7442983339
 20
134.7418240115
 11
123.3567727533
 21
163.5585869832
  0
LINE
  5
4DD
100
AcDbEntity
  8
0
100
AcDbLine
 62
2
  6
CONTINUOUS
 10
119.8643673504
 20
141.5707753948
 11
123.3643673504
 21
142.1541087281
  0
LINE
  5
4DE
100
AcDbEntity
  8
0
100
AcDbLine
 62
2
  6
CONTINUOUS
 10
123.3643673504
 20
140.9874420615
 11
119.8643673504
 21
141.5707753948
  0
LINE
  5
4DF
100
AcDbEntity
  8
0
100
AcDbLine
 62
2
  6
CONTINUOUS
 10
123.3643673504
 20
142.1541087281
 11
123.3643673504
 21
140.9874420615
  0
HATCH
  5
4E0
100
AcDbEntity
  8
0
100
AcDbHatch
 62
2
  6
CONTINUOUS
 10
0.0
 20
0.0
 30
0.0
210
0.0
220
0.0
230
1.0
  2

 70
1
 71
1
 91
1
 92
1
 93
3
 72
1
 10
123.3643673504
 20
142.1541087281
 11
123.3643673504
 21
140.9874420615
 72
1
 10
123.3643673504
 20
140.9874420615
 11
119.8643673504
 21
141.5707753948
 72
1
 10
119.8643673504
 20
141.5707753948
 11
123.3643673504
 21
142.1541087281
 97
3
330
4DD
330
4DE
330
4DF
 75
0
 76
1
 98
1
 10
0.0
 20
0.0
  0
LINE
  5
4E1
100
AcDbEntity
  8
025
100
AcDbLine
 62
2
  6
CONTINUOUS
 10
62.2813039126
 20
145.1046508719
 11
60.3378360288
 21
145.0049573057
  0
LINE
  5
4E2
100
AcDbEntity
  8
05
100
AcDbLine
 62
7
  6
CONTINUOUS
 10
63.5721900344
 20
137.9609822002
 11
63.5966929583
 21
137.9609822002
  0
LINE
  5
4E3
100
AcDbEntity
  8
07
100
AcDbLine
 62
7
  6
CONTINUOUS
 10
63.3221607946
 20
141.5615669956
 11
59.3216929583
 21
141.5615669956
  0
LINE
  5
4E4
100
AcDbEntity
  8
0
100
AcDbLine
 62
2
  6
CONTINUOUS
 10
123.3643673504
 20
141.5707753948
 11
132.2378939746
 21
141.5707753948
  0
LINE
  5
4E5
100
AcDbEntity
  8
05
100
AcDbLine
 62
7
  6
CONTINUOUS
 10
59.3216929583
 20
141.8109822002
 11
63.3216929583
 21
141.8109822002
  0
LINE
  5
4E6
100
AcDbEntity
  8
05
100
AcDbLine
 62
7
  6
CONTINUOUS
 10
59.3216929583
 20
143.0609822002
 11
61.3216929583
 21
143.0609822002
  0
LINE
  5
4E7
100
AcDbEntity
  8
05
100
AcDbLine
 62
7
  6
CONTINUOUS
 10
61.3216929583
 20
144.5506192292
 11
59.3216929583
 21
144.5506192292
  0
LINE
  5
4E8
100
AcDbEntity
  8
025
100
AcDbLine
 62
2
  6
CONTINUOUS
 10
64.0716929583
 20
144.7943900517
 11
62.9078983853
 21
144.9207308216
  0
LINE
  5
4E9
100
AcDbEntity
  8
025
100
AcDbLine
 62
2
  6
CONTINUOUS
 10
59.3690458566
 20
180.243280626
 11
59.0796976237
 21
180.4503119021
  0
LINE
  5
4EA
100
AcDbEntity
  8
025
100
AcDbLine
 62
2
  6
CONTINUOUS
 10
59.3690458566
 20
181.0692032699
 11
59.0796976237
 21
181.2762345459
  0
LINE
  5
4EB
100
AcDbEntity
  8
025
100
AcDbLine
 62
2
  6
CONTINUOUS
 10
56.5474187976
 20
182.3105650036
 11
56.1216792685
 21
182.6201712891
  0
LINE
  5
4EC
100
AcDbEntity
  8
025
100
AcDbLine
 62
2
  6
CONTINUOUS
 10
57.1261152634
 20
181.0020282282
 11
56.5474187976
 21
181.4846423597
  0
LINE
  5
4ED
100
AcDbEntity
  8
025
100
AcDbLine
 62
2
  6
CONTINUOUS
 10
57.1261152634
 20
181.827950872
 11
56.5474187976
 21
182.3105650036
  0
LINE
  5
4EE
100
AcDbEntity
  8
025
100
AcDbLine
 62
2
  6
CONTINUOUS
 10
61.3226282169
 20
179.5536352184
 11
61.1056858691
 21
179.7606664944
  0
LINE
  5
4EF
100
AcDbEntity
  8
025
100
AcDbLine
 62
2
  6
CONTINUOUS
 10
61.3226282169
 20
180.3795578622
 11
61.1056858691
 21
180.5865891383
  0
LINE
  5
4F0
100
AcDbEntity
  8
07
100
AcDbLine
 62
7
  6
CONTINUOUS
 10
120.9327777963
 20
120.2484707969
 11
120.6783943568
 21
120.5028542364
  0
LINE
  5
4F1
100
AcDbEntity
  8
07
100
AcDbLine
 62
7
  6
CONTINUOUS
 10
120.3731342294
 20
122.8940585676
 11
119.8643673504
 21
123.4028254466
  0
LINE
  5
4F2
100
AcDbEntity
  8
07
100
AcDbLine
 62
7
  6
CONTINUOUS
 10
132.7870460765
 20
120.2484707969
 11
131.7695123186
 21
121.2660045549
  0
LINE
  5
4F3
100
AcDbEntity
  8
05
100
AcDbLine
 62
7
  6
CONTINUOUS
 10
115.2011306625
 20
237.1303720636
 11
115.2011306625
 21
243.9303720636
  0
LINE
  5
4F4
100
AcDbEntity
  8
SCHRAFFIERT
100
AcDbLine
 62
2
  6
CONTINUOUS
 10
115.4511306625
 20
244.1803720636
 11
115.4511306625
 21
236.8803720636
  0
LINE
  5
4F5
100
AcDbEntity
  8
05
100
AcDbLine
 62
7
  6
CONTINUOUS
 10
115.8011306625
 20
233.3303720636
 11
115.8011306625
 21
236.5303720636
  0
LINE
  5
4F6
100
AcDbEntity
  8
05
100
AcDbLine
 62
7
  6
CONTINUOUS
 10
115.8011306625
 20
244.5303720636
 11
115.8011306625
 21
246.7303720636
  0
LINE
  5
4F7
100
AcDbEntity
  8
SCHRAFFIERT
100
AcDbLine
 62
2
  6
CONTINUOUS
 10
115.9511306625
 20
244.5303720636
 11
115.9511306625
 21
236.5303720636
  0
LINE
  5
4F8
100
AcDbEntity
  8
SCHRAFFIERT
100
AcDbLine
 62
2
  6
CONTINUOUS
 10
116.6511306625
 20
244.5303720636
 11
116.6511306625
 21
236.5303720636
  0
LINE
  5
4F9
100
AcDbEntity
  8
SCHRAFFIERT
100
AcDbLine
 62
2
  6
CONTINUOUS
 10
117.6511306625
 20
244.5303720636
 11
117.6511306625
 21
236.5303720636
  0
LINE
  5
4FA
100
AcDbEntity
  8
07
100
AcDbLine
 62
7
  6
CONTINUOUS
 10
118.3000195514
 20
175.5412107963
 11
118.3000195514
 21
154.3369417904
  0
LINE
  5
4FB
100
AcDbEntity
  8
05
100
AcDbLine
 62
7
  6
CONTINUOUS
 10
118.3011307575
 20
228.155207478
 11
118.3011307575
 21
232.4919266239
  0
LINE
  5
4FC
100
AcDbEntity
  8
035
100
AcDbLine
 62
7
  6
CONTINUOUS
 10
118.8364293122
 20
249.6545393144
 11
118.8364293122
 21
249.2545393144
  0
LINE
  5
4FD
100
AcDbEntity
  8
SCHRAFFIERT
100
AcDbLine
 62
2
  6
CONTINUOUS
 10
118.8511306625
 20
244.5303720636
 11
118.8511306625
 21
236.5303720636
  0
LINE
  5
4FE
100
AcDbEntity
  8
SCHRAFFIERT
100
AcDbLine
 62
2
  6
CONTINUOUS
 10
132.3016569783
 20
173.0457922873
 11
135.6020429432
 21
176.3461782522
  0
LINE
  5
4FF
100
AcDbEntity
  8
SCHRAFFIERT
100
AcDbLine
 62
2
  6
CONTINUOUS
 10
132.3016569783
 20
171.4641060662
 11
136.840501741
 21
176.0029508289
  0
LINE
  5
500
100
AcDbEntity
  8
SCHRAFFIERT
100
AcDbLine
 62
2
  6
CONTINUOUS
 10
132.3016569783
 20
169.8824198451
 11
137.3022417736
 21
174.8830046404
  0
LINE
  5
501
100
AcDbEntity
  8
SCHRAFFIERT
100
AcDbLine
 62
2
  6
CONTINUOUS
 10
133.0413739166
 20
169.0404505623
 11
137.3022417736
 21
173.3013184194
  0
LINE
  5
502
100
AcDbEntity
  8
SCHRAFFIERT
100
AcDbLine
 62
2
  6
CONTINUOUS
 10
134.6230601377
 20
169.0404505623
 11
137.3022417736
 21
171.7196321983
  0
LINE
  5
503
100
AcDbEntity
  8
SCHRAFFIERT
100
AcDbLine
 62
2
  6
CONTINUOUS
 10
135.2520020075
 20
168.0877062111
 11
137.3022417736
 21
170.1379459772
  0
LINE
  5
504
100
AcDbEntity
  8
SCHRAFFIERT
100
AcDbLine
 62
2
  6
CONTINUOUS
 10
135.2520020075
 20
166.50601999
 11
137.3022417736
 21
168.5562597561
  0
LINE
  5
505
100
AcDbEntity
  8
SCHRAFFIERT
100
AcDbLine
 62
2
  6
CONTINUOUS
 10
135.2520020075
 20
164.924333769
 11
137.3022417736
 21
166.9745735351
  0
LINE
  5
506
100
AcDbEntity
  8
SCHRAFFIERT
100
AcDbLine
 62
2
  6
CONTINUOUS
 10
135.2520020075
 20
163.3426475479
 11
137.3022417736
 21
165.392887314
  0
LINE
  5
507
100
AcDbEntity
  8
SCHRAFFIERT
100
AcDbLine
 62
2
  6
CONTINUOUS
 10
135.2520020075
 20
161.7609613268
 11
137.3022417736
 21
163.8112010929
  0
LINE
  5
508
100
AcDbEntity
  8
SCHRAFFIERT
100
AcDbLine
 62
2
  6
CONTINUOUS
 10
135.2520020075
 20
160.1792751057
 11
137.3022417736
 21
162.2295148718
  0
LINE
  5
509
100
AcDbEntity
  8
07
100
AcDbLine
 62
7
  6
CONTINUOUS
 10
118.5982651654
 20
154.0386961764
 11
137.0039961596
 21
154.0386961764
  0
LINE
  5
50A
100
AcDbEntity
  8
05
100
AcDbLine
 62
7
  6
CONTINUOUS
 10
63.0716929583
 20
154.0609822002
 11
55.5716929583
 21
154.0609822002
  0
LINE
  5
50B
100
AcDbEntity
  8
0
100
AcDbLine
 62
2
  6
CONTINUOUS
 10
54.9543348186
 20
154.0609822002
 11
47.1092784006
 21
154.0609822002
  0
LINE
  5
50C
100
AcDbEntity
  8
025
100
AcDbLine
 62
2
  6
CONTINUOUS
 10
59.0796976237
 20
180.4503119021
 11
58.7179435057
 21
180.5882409836
  0
LINE
  5
50D
100
AcDbEntity
  8
025
100
AcDbLine
 62
2
  6
CONTINUOUS
 10
56.5474187976
 20
181.4846423597
 11
56.0730638924
 21
181.6919489434
  0
LINE
  5
50E
100
AcDbEntity
  8
025
100
AcDbLine
 62
2
  6
CONTINUOUS
 10
61.75678822
 20
179.2777770553
 11
61.3226282169
 21
179.5536352184
  0
LINE
  5
50F
100
AcDbEntity
  8
025
100
AcDbLine
 62
2
  6
CONTINUOUS
 10
61.75678822
 20
180.1036996992
 11
61.3226282169
 21
180.3795578622
  0
LINE
  5
510
100
AcDbEntity
  8
07
100
AcDbLine
 62
7
  6
CONTINUOUS
 10
135.2291270956
 20
132.0518623893
 11
135.7378939746
 21
131.5430955103
  0
LINE
  5
511
100
AcDbEntity
  8
07
100
AcDbLine
 62
7
  6
CONTINUOUS
 10
134.9238669682
 20
134.4430667205
 11
134.6694835288
 21
134.69745016
  0
LINE
  5
512
100
AcDbEntity
  8
05
100
AcDbLine
 62
7
  6
CONTINUOUS
 10
118.3120524371
 20
232.5303720636
 11
118.5198524141
 21
230.155207458
  0
LINE
  5
513
100
AcDbEntity
  8
07
100
AcDbLine
 62
7
  6
CONTINUOUS
 10
119.3001365105
 20
185.5423803869
 11
119.3001365105
 21
178.0415031939
  0
LINE
  5
514
100
AcDbEntity
  8
0
100
AcDbLine
 62
2
  6
CONTINUOUS
 10
119.3001365105
 20
77.4517590346
 11
119.3001365105
 21
66.2344496262
  0
LINE
  5
515
100
AcDbEntity
  8
07
100
AcDbLine
 62
7
  6
CONTINUOUS
 10
119.3001365105
 20
78.2517590346
 11
119.3001365105
 21
87.0527882744
  0
LINE
  5
516
100
AcDbEntity
  8
0
100
AcDbLine
 62
2
  6
CONTINUOUS
 10
119.3001365105
 20
186.3423803869
 11
119.3001365105
 21
194.3869280793
  0
LINE
  5
517
100
AcDbEntity
  8
0
100
AcDbLine
 62
2
  6
CONTINUOUS
 10
119.3011307475
 20
217.355207508
 11
119.3011307475
 21
207.7123298418
  0
LINE
  5
518
100
AcDbEntity
  8
05
100
AcDbLine
 62
7
  6
CONTINUOUS
 10
119.3011307475
 20
218.155207508
 11
119.3011307475
 21
227.655207483
  0
LINE
  5
519
100
AcDbEntity
  8
010
100
AcDbLine
 62
2
  6
CONTINUOUS
 10
119.8462003701
 20
186.0424388664
 11
119.8462003701
 21
178.0415031939
  0
LINE
  5
51A
100
AcDbEntity
  8
010
100
AcDbLine
 62
2
  6
CONTINUOUS
 10
119.850200838
 20
77.7016947071
 11
119.850200838
 21
87.6028526019
  0
LINE
  5
51B
100
AcDbEntity
  8
07
100
AcDbLine
 62
7
  6
CONTINUOUS
 10
119.8643673504
 20
131.5430955103
 11
119.8643673504
 21
123.4028254466
  0
LINE
  5
51C
100
AcDbEntity
  8
0
100
AcDbLine
 62
2
  6
CONTINUOUS
 10
119.8643673504
 20
132.3430955103
 11
119.8643673504
 21
142.3707753948
  0
LINE
  5
51D
100
AcDbEntity
  8
05
100
AcDbLine
 62
7
  6
CONTINUOUS
 10
119.9261306625
 20
248.581414744
 11
119.9261306625
 21
259.655207483
  0
LINE
  5
51E
100
AcDbEntity
  8
07
100
AcDbLine
 62
7
  6
CONTINUOUS
 10
120.0002183818
 20
178.0415031939
 11
120.0002183818
 21
176.0412692758
  0
LINE
  5
51F
100
AcDbEntity
  8
010
100
AcDbLine
 62
2
  6
CONTINUOUS
 10
120.1671561513
 20
217.655207508
 11
120.1671561513
 21
225.155207508
  0
LINE
  5
520
100
AcDbEntity
  8
SCHRAFFIERT
100
AcDbLine
 62
2
  6
CONTINUOUS
 10
120.4511306625
 20
244.5303720636
 11
120.4511306625
 21
236.5303720636
  0
LINE
  5
521
100
AcDbEntity
  8
010
100
AcDbLine
 62
2
  6
CONTINUOUS
 10
120.5130451211
 20
132.0518623893
 11
120.5130451211
 21
122.8940585676
  0
LINE
  5
522
100
AcDbEntity
  8
07
100
AcDbLine
 62
7
  6
CONTINUOUS
 10
120.6783943568
 20
134.4430667205
 11
120.6783943568
 21
132.0518623893
  0
LINE
  5
523
100
AcDbEntity
  8
07
100
AcDbLine
 62
7
  6
CONTINUOUS
 10
120.6783943568
 20
122.8940585676
 11
120.6783943568
 21
120.5028542364
  0
LINE
  5
524
100
AcDbEntity
  8
05
100
AcDbLine
 62
7
  6
CONTINUOUS
 10
121.9768688066
 20
248.581414744
 11
121.9768688066
 21
260.5185163225
  0
LINE
  5
525
100
AcDbEntity
  8
SCHRAFFIERT
100
AcDbLine
 62
2
  6
CONTINUOUS
 10
122.3511306625
 20
244.5303720636
 11
122.3511306625
 21
236.5303720636
  0
LINE
  5
526
100
AcDbEntity
  8
0
100
AcDbLine
 62
2
  6
CONTINUOUS
 10
122.8001365105
 20
194.527925849
 11
122.8001365105
 21
193.3612591823
  0
LINE
  5
527
100
AcDbEntity
  8
0
100
AcDbLine
 62
2
  6
CONTINUOUS
 10
119.3001365105
 20
193.9445925156
 11
122.8001365105
 21
194.527925849
  0
LINE
  5
528
100
AcDbEntity
  8
0
100
AcDbLine
 62
2
  6
CONTINUOUS
 10
122.8001365105
 20
193.3612591823
 11
119.3001365105
 21
193.9445925156
  0
HATCH
  5
529
100
AcDbEntity
  8
0
100
AcDbHatch
 62
2
  6
CONTINUOUS
 10
0.0
 20
0.0
 30
0.0
210
0.0
220
0.0
230
1.0
  2

 70
1
 71
1
 91
1
 92
1
 93
3
 72
1
 10
122.8001365105
 20
193.3612591823
 11
119.3001365105
 21
193.9445925156
 72
1
 10
119.3001365105
 20
193.9445925156
 11
122.8001365105
 21
194.527925849
 72
1
 10
122.8001365105
 20
194.527925849
 11
122.8001365105
 21
193.3612591823
 97
3
330
526
330
527
330
528
 75
0
 76
1
 98
1
 10
0.0
 20
0.0
  0
LINE
  5
52A
100
AcDbEntity
  8
0
100
AcDbLine
 62
2
  6
CONTINUOUS
 10
122.8011307475
 20
209.0956631751
 11
122.8011307475
 21
207.9289965085
  0
LINE
  5
52B
100
AcDbEntity
  8
0
100
AcDbLine
 62
2
  6
CONTINUOUS
 10
119.3011307475
 20
208.5123298418
 11
122.8011307475
 21
209.0956631751
  0
LINE
  5
52C
100
AcDbEntity
  8
0
100
AcDbLine
 62
2
  6
CONTINUOUS
 10
122.8011307475
 20
207.9289965085
 11
119.3011307475
 21
208.5123298418
  0
HATCH
  5
52D
100
AcDbEntity
  8
0
100
AcDbHatch
 62
2
  6
CONTINUOUS
 10
0.0
 20
0.0
 30
0.0
210
0.0
220
0.0
230
1.0
  2

 70
1
 71
1
 91
1
 92
1
 93
3
 72
1
 10
122.8011307475
 20
207.9289965085
 11
119.3011307475
 21
208.5123298418
 72
1
 10
119.3011307475
 20
208.5123298418
 11
122.8011307475
 21
209.0956631751
 72
1
 10
122.8011307475
 20
209.0956631751
 11
122.8011307475
 21
207.9289965085
 97
3
330
52A
330
52B
330
52C
 75
0
 76
1
 98
1
 10
0.0
 20
0.0
  0
LINE
  5
52E
100
AcDbEntity
  8
07
100
AcDbLine
 62
7
  6
CONTINUOUS
 10
123.050575107
 20
94.6537941223
 11
123.050575107
 21
90.653092368
  0
LINE
  5
52F
100
AcDbEntity
  8
0
100
AcDbLine
 62
2
  6
CONTINUOUS
 10
123.050575107
 20
95.9537356428
 11
123.050575107
 21
103.1158481031
  0
LINE
  5
530
100
AcDbEntity
  8
010
100
AcDbLine
 62
2
  6
CONTINUOUS
 10
123.800575107
 20
95.4037941223
 11
123.800575107
 21
89.903092368
  0
LINE
  5
531
100
AcDbEntity
  8
05
100
AcDbLine
 62
7
  6
CONTINUOUS
 10
124.3011306625
 20
186.0424388664
 11
124.3011306625
 21
172.0412692758
  0
LINE
  5
532
100
AcDbEntity
  8
05
100
AcDbLine
 62
7
  6
CONTINUOUS
 10
124.3011306625
 20
87.6528584498
 11
124.3011306625
 21
89.4025368124
  0
LINE
  5
533
100
AcDbEntity
  8
SCHRAFFIERT
100
AcDbLine
 62
2
  6
CONTINUOUS
 10
124.4511306625
 20
244.5303720636
 11
124.4511306625
 21
236.5303720636
  0
LINE
  5
534
100
AcDbEntity
  8
05
100
AcDbLine
 62
7
  6
CONTINUOUS
 10
125.6825778432
 20
230.155207458
 11
125.6825778432
 21
232.4919266239
  0
LINE
  5
535
100
AcDbEntity
  8
05
100
AcDbLine
 62
7
  6
CONTINUOUS
 10
126.6105317393
 20
168.0412692758
 11
126.6105317393
 21
173.0412692758
  0
LINE
  5
536
100
AcDbEntity
  8
07
100
AcDbLine
 62
7
  6
CONTINUOUS
 10
126.6818435288
 20
122.8940585676
 11
126.6818435288
 21
120.2484707969
  0
LINE
  5
537
100
AcDbEntity
  8
SCHRAFFIERT
100
AcDbLine
 62
2
  6
CONTINUOUS
 10
126.8511306625
 20
244.5303720636
 11
126.8511306625
 21
236.5303720636
  0
LINE
  5
538
100
AcDbEntity
  8
MITTE
100
AcDbLine
 62
2
  6
CENTER
 10
127.8011306625
 20
261.3769945543
 11
127.8011306625
 21
216.1695732017
  0
LINE
  5
539
100
AcDbEntity
  8
MITTE
100
AcDbLine
 62
2
  6
CENTER
 10
127.8011306625
 20
186.7245186325
 11
127.8011306625
 21
153.2115994512
  0
LINE
  5
53A
100
AcDbEntity
  8
MITTE
100
AcDbLine
 62
2
  6
CENTER
 10
127.8011306625
 20
135.370039974
 11
127.8011306625
 21
119.6888272301
  0
LINE
  5
53B
100
AcDbEntity
  8
MITTE
100
AcDbLine
 62
2
  6
CENTER
 10
127.8011306625
 20
76.3772346487
 11
127.8011306625
 21
96.2813675142
  0
LINE
  5
53C
100
AcDbEntity
  8
SCHRAFFIERT
100
AcDbLine
 62
2
  6
CONTINUOUS
 10
128.7511306625
 20
244.5303720636
 11
128.7511306625
 21
236.5303720636
  0
LINE
  5
53D
100
AcDbEntity
  8
07
100
AcDbLine
 62
7
  6
CONTINUOUS
 10
128.9204177963
 20
122.8940585676
 11
128.9204177963
 21
120.2484707969
  0
LINE
  5
53E
100
AcDbEntity
  8
05
100
AcDbLine
 62
7
  6
CONTINUOUS
 10
129.9196834819
 20
230.155207458
 11
129.9196834819
 21
232.4919266239
  0
LINE
  5
53F
100
AcDbEntity
  8
SCHRAFFIERT
100
AcDbLine
 62
2
  6
CONTINUOUS
 10
131.1511306625
 20
244.5303720636
 11
131.1511306625
 21
236.5303720636
  0
LINE
  5
540
100
AcDbEntity
  8
05
100
AcDbLine
 62
7
  6
CONTINUOUS
 10
121.061118662
 20
248.581414744
 11
121.0708298566
 21
259.8257368451
  0
LINE
  5
541
100
AcDbEntity
  8
05
100
AcDbLine
 62
7
  6
CONTINUOUS
 10
137.2902088879
 20
232.5303720636
 11
137.0824089109
 21
230.155207458
  0
LINE
  5
542
100
AcDbEntity
  8
SCHRAFFIERT
100
AcDbLine
 62
2
  6
CONTINUOUS
 10
135.2520020075
 20
158.5975888847
 11
137.3022417736
 21
160.6478286508
  0
LINE
  5
543
100
AcDbEntity
  8
SCHRAFFIERT
100
AcDbLine
 62
2
  6
CONTINUOUS
 10
135.2520020075
 20
157.0159026636
 11
137.3022417736
 21
159.0661424297
  0
LINE
  5
544
100
AcDbEntity
  8
SCHRAFFIERT
100
AcDbLine
 62
2
  6
CONTINUOUS
 10
135.2520020075
 20
155.4342164425
 11
137.3022417736
 21
157.4844562086
  0
LINE
  5
545
100
AcDbEntity
  8
SCHRAFFIERT
100
AcDbLine
 62
2
  6
CONTINUOUS
 10
135.4381679625
 20
154.0386961764
 11
137.3022417736
 21
155.9027699875
  0
LINE
  5
546
100
AcDbEntity
  8
SCHRAFFIERT
100
AcDbLine
 62
2
  6
CONTINUOUS
 10
137.0198541836
 20
154.0386961764
 11
137.3022417736
 21
154.3210837665
  0
LINE
  5
547
100
AcDbEntity
  8
07
100
AcDbLine
 62
7
  6
CONTINUOUS
 10
120.9327777963
 20
134.69745016
 11
120.6783943568
 21
134.4430667205
  0
LINE
  5
548
100
AcDbEntity
  8
07
100
AcDbLine
 62
7
  6
CONTINUOUS
 10
119.8643673504
 20
131.5430955103
 11
120.3731342294
 21
132.0518623893
  0
LINE
  5
549
100
AcDbEntity
  8
025
100
AcDbLine
 62
2
  6
CONTINUOUS
 10
62.5703220242
 20
154.1518336911
 11
62.2476168899
 21
154.0609822002
  0
LINE
  5
54A
100
AcDbEntity
  8
025
100
AcDbLine
 62
2
  6
CONTINUOUS
 10
62.5703220242
 20
154.6473872774
 11
60.4874070666
 21
154.0609822002
  0
LINE
  5
54B
100
AcDbEntity
  8
025
100
AcDbLine
 62
2
  6
CONTINUOUS
 10
62.5703220242
 20
155.6660252048
 11
56.8691979854
 21
154.0609822002
  0
LINE
  5
54C
100
AcDbEntity
  8
025
100
AcDbLine
 62
2
  6
CONTINUOUS
 10
62.5703220242
 20
156.1615787911
 11
56.0730638924
 21
154.3323993798
  0
LINE
  5
54D
100
AcDbEntity
  8
025
100
AcDbLine
 62
2
  6
CONTINUOUS
 10
62.5703220242
 20
157.1802167186
 11
56.0730638924
 21
155.3510373072
  0
LINE
  5
54E
100
AcDbEntity
  8
025
100
AcDbLine
 62
2
  6
CONTINUOUS
 10
62.5703220242
 20
157.6757703049
 11
56.0730638924
 21
155.8465908936
  0
LINE
  5
54F
100
AcDbEntity
  8
025
100
AcDbLine
 62
2
  6
CONTINUOUS
 10
62.5703220242
 20
158.6944082323
 11
56.0730638924
 21
156.865228821
  0
LINE
  5
550
100
AcDbEntity
  8
025
100
AcDbLine
 62
2
  6
CONTINUOUS
 10
62.5703220242
 20
159.1899618187
 11
56.0730638924
 21
157.3607824073
  0
LINE
  5
551
100
AcDbEntity
  8
025
100
AcDbLine
 62
2
  6
CONTINUOUS
 10
62.5703220242
 20
160.2085997461
 11
56.0730638924
 21
158.3794203348
  0
LINE
  5
552
100
AcDbEntity
  8
025
100
AcDbLine
 62
2
  6
CONTINUOUS
 10
62.5703220242
 20
160.7041533324
 11
56.0730638924
 21
158.8749739211
  0
LINE
  5
553
100
AcDbEntity
  8
025
100
AcDbLine
 62
2
  6
CONTINUOUS
 10
62.5703220242
 20
161.7227912599
 11
56.0730638924
 21
159.8936118485
  0
LINE
  5
554
100
AcDbEntity
  8
025
100
AcDbLine
 62
2
  6
CONTINUOUS
 10
62.5703220242
 20
162.2183448462
 11
56.0730638924
 21
160.3891654348
  0
LINE
  5
555
100
AcDbEntity
  8
025
100
AcDbLine
 62
2
  6
CONTINUOUS
 10
62.5703220242
 20
163.2369827736
 11
56.0730638924
 21
161.4078033623
  0
LINE
  5
556
100
AcDbEntity
  8
025
100
AcDbLine
 62
2
  6
CONTINUOUS
 10
62.5703220242
 20
163.73253636
 11
56.0730638924
 21
161.9033569486
  0
LINE
  5
557
100
AcDbEntity
  8
05
100
AcDbLine
 62
7
  6
CONTINUOUS
 10
127.8011306625
 20
168.0412692758
 11
126.6105317393
 21
168.0412692758
  0
LINE
  5
558
100
AcDbEntity
  8
07
100
AcDbLine
 62
7
  6
CONTINUOUS
 10
135.7020546391
 20
169.0404505623
 11
127.8011306625
 21
169.0404505623
  0
LINE
  5
559
100
AcDbEntity
  8
0
100
AcDbLine
 62
2
  6
CONTINUOUS
 10
67.756623191
 20
169.8933506368
 11
24.1586837973
 21
169.8933506368
  0
LINE
  5
55A
100
AcDbEntity
  8
05
100
AcDbLine
 62
7
  6
CONTINUOUS
 10
127.8011306625
 20
173.0412692758
 11
126.6105317393
 21
173.0412692758
  0
LINE
  5
55B
100
AcDbEntity
  8
025
100
AcDbLine
 62
2
  6
CONTINUOUS
 10
61.1056858691
 20
179.7606664944
 11
60.5991199808
 21
179.8294933814
  0
LINE
  5
55C
100
AcDbEntity
  8
025
100
AcDbLine
 62
2
  6
CONTINUOUS
 10
61.1056858691
 20
180.5865891383
 11
60.5991199808
 21
180.6554160253
  0
LINE
  5
55D
100
AcDbEntity
  8
025
100
AcDbLine
 62
2
  6
CONTINUOUS
 10
62.5703220242
 20
179.0707457793
 11
61.75678822
 21
179.2777770553
  0
LINE
  5
55E
100
AcDbEntity
  8
025
100
AcDbLine
 62
2
  6
CONTINUOUS
 10
59.0796976237
 20
181.2762345459
 11
58.7179435057
 21
181.4141636275
  0
LINE
  5
55F
100
AcDbEntity
  8
05
100
AcDbLine
 62
7
  6
CONTINUOUS
 10
57.3216929583
 20
216.634345159
 11
56.0716929583
 21
217.884345159
  0
LINE
  5
560
100
AcDbEntity
  8
05
100
AcDbLine
 62
7
  6
CONTINUOUS
 10
55.3166929583
 20
219.6123985153
 11
55.0466929583
 21
219.8823985153
  0
LINE
  5
561
100
AcDbEntity
  8
05
100
AcDbLine
 62
7
  6
CONTINUOUS
 10
54.9466929583
 20
223.134345159
 11
55.0466929583
 21
223.034345159
  0
LINE
  5
562
100
AcDbEntity
  8
05
100
AcDbLine
 62
7
  6
CONTINUOUS
 10
53.3216929583
 20
227.5719274492
 11
53.0216929583
 21
227.8719274492
  0
LINE
  5
563
100
AcDbEntity
  8
05
100
AcDbLine
 62
7
  6
CONTINUOUS
 10
131.3011306625
 20
87.6528584498
 11
131.3011306625
 21
89.4025368124
  0
LINE
  5
564
100
AcDbEntity
  8
07
100
AcDbLine
 62
7
  6
CONTINUOUS
 10
131.7695123186
 20
133.679916402
 11
131.7695123186
 21
121.2660045549
  0
LINE
  5
565
100
AcDbEntity
  8
010
100
AcDbLine
 62
2
  6
CONTINUOUS
 10
131.8016862181
 20
95.4037941223
 11
131.8016862181
 21
89.903092368
  0
LINE
  5
566
100
AcDbEntity
  8
07
100
AcDbLine
 62
7
  6
CONTINUOUS
 10
132.3016569783
 20
186.0424388664
 11
132.3016569783
 21
169.0404505623
  0
LINE
  5
567
100
AcDbEntity
  8
07
100
AcDbLine
 62
7
  6
CONTINUOUS
 10
132.5516862181
 20
94.6537941223
 11
132.5516862181
 21
90.653092368
  0
LINE
  5
568
100
AcDbEntity
  8
0
100
AcDbLine
 62
2
  6
CONTINUOUS
 10
132.5516862181
 20
95.9537356428
 11
132.5516862181
 21
103.1158481031
  0
LINE
  5
569
100
AcDbEntity
  8
010
100
AcDbLine
 62
2
  6
CONTINUOUS
 10
132.7870460765
 20
134.69745016
 11
132.7870460765
 21
120.2484707969
  0
LINE
  5
56A
100
AcDbEntity
  8
0
100
AcDbLine
 62
2
  6
CONTINUOUS
 10
132.7870460765
 20
119.4484707969
 11
132.7870460765
 21
111.4017073423
  0
LINE
  5
56B
100
AcDbEntity
  8
0
100
AcDbLine
 62
2
  6
CONTINUOUS
 10
132.8011305775
 20
209.0956631751
 11
132.8011305775
 21
207.9289965085
  0
LINE
  5
56C
100
AcDbEntity
  8
0
100
AcDbLine
 62
2
  6
CONTINUOUS
 10
132.8011305775
 20
207.9289965085
 11
136.3011305775
 21
208.5123298418
  0
LINE
  5
56D
100
AcDbEntity
  8
0
100
AcDbLine
 62
2
  6
CONTINUOUS
 10
136.3011305775
 20
208.5123298418
 11
132.8011305775
 21
209.0956631751
  0
HATCH
  5
56E
100
AcDbEntity
  8
0
100
AcDbHatch
 62
2
  6
CONTINUOUS
 10
0.0
 20
0.0
 30
0.0
210
0.0
220
0.0
230
1.0
  2

 70
1
 71
1
 91
1
 92
1
 93
3
 72
1
 10
132.8011305775
 20
207.9289965085
 11
136.3011305775
 21
208.5123298418
 72
1
 10
136.3011305775
 20
208.5123298418
 11
132.8011305775
 21
209.0956631751
 72
1
 10
132.8011305775
 20
209.0956631751
 11
132.8011305775
 21
207.9289965085
 97
3
330
56B
330
56C
330
56D
 75
0
 76
1
 98
1
 10
0.0
 20
0.0
  0
LINE
  5
56F
100
AcDbEntity
  8
0
100
AcDbLine
 62
2
  6
CONTINUOUS
 10
132.8021248146
 20
194.527925849
 11
132.8021248146
 21
193.3612591823
  0
LINE
  5
570
100
AcDbEntity
  8
0
100
AcDbLine
 62
2
  6
CONTINUOUS
 10
132.8021248146
 20
193.3612591823
 11
136.3021248146
 21
193.9445925156
  0
LINE
  5
571
100
AcDbEntity
  8
0
100
AcDbLine
 62
2
  6
CONTINUOUS
 10
136.3021248146
 20
193.9445925156
 11
132.8021248146
 21
194.527925849
  0
HATCH
  5
572
100
AcDbEntity
  8
0
100
AcDbHatch
 62
2
  6
CONTINUOUS
 10
0.0
 20
0.0
 30
0.0
210
0.0
220
0.0
230
1.0
  2

 70
1
 71
1
 91
1
 92
1
 93
3
 72
1
 10
132.8021248146
 20
193.3612591823
 11
136.3021248146
 21
193.9445925156
 72
1
 10
136.3021248146
 20
193.9445925156
 11
132.8021248146
 21
194.527925849
 72
1
 10
132.8021248146
 20
194.527925849
 11
132.8021248146
 21
193.3612591823
 97
3
330
56F
330
570
330
571
 75
0
 76
1
 98
1
 10
0.0
 20
0.0
  0
LINE
  5
573
100
AcDbEntity
  8
SCHRAFFIERT
100
AcDbLine
 62
2
  6
CONTINUOUS
 10
133.2511306625
 20
244.5303720636
 11
133.2511306625
 21
236.5303720636
  0
LINE
  5
574
100
AcDbEntity
  8
07
100
AcDbLine
 62
7
  6
CONTINUOUS
 10
134.9238669682
 20
134.4430667205
 11
134.9238669682
 21
132.0518623893
  0
LINE
  5
575
100
AcDbEntity
  8
07
100
AcDbLine
 62
7
  6
CONTINUOUS
 10
134.9238669682
 20
122.8940585676
 11
134.9238669682
 21
120.5028542364
  0
LINE
  5
576
100
AcDbEntity
  8
010
100
AcDbLine
 62
2
  6
CONTINUOUS
 10
135.0892162039
 20
132.0518623893
 11
135.0892162039
 21
122.8940585676
  0
LINE
  5
577
100
AcDbEntity
  8
SCHRAFFIERT
100
AcDbLine
 62
2
  6
CONTINUOUS
 10
135.1511306625
 20
244.5303720636
 11
135.1511306625
 21
236.5303720636
  0
LINE
  5
578
100
AcDbEntity
  8
07
100
AcDbLine
 62
7
  6
CONTINUOUS
 10
135.2520020075
 20
169.0404505623
 11
135.2520020075
 21
154.0386961764
  0
LINE
  5
579
100
AcDbEntity
  8
010
100
AcDbLine
 62
2
  6
CONTINUOUS
 10
135.4351051737
 20
217.655207508
 11
135.4351051737
 21
225.155207508
  0
LINE
  5
57A
100
AcDbEntity
  8
07
100
AcDbLine
 62
7
  6
CONTINUOUS
 10
135.6020429432
 20
178.0415031939
 11
135.6020429432
 21
176.0412692758
  0
LINE
  5
57B
100
AcDbEntity
  8
05
100
AcDbLine
 62
7
  6
CONTINUOUS
 10
135.6761306625
 20
248.581414744
 11
135.6761306625
 21
259.655207483
  0
LINE
  5
57C
100
AcDbEntity
  8
010
100
AcDbLine
 62
2
  6
CONTINUOUS
 10
135.7020546391
 20
169.0404505623
 11
135.7020546391
 21
154.0386961764
  0
LINE
  5
57D
100
AcDbEntity
  8
07
100
AcDbLine
 62
7
  6
CONTINUOUS
 10
135.7378939746
 20
131.5430955103
 11
135.7378939746
 21
123.4028254466
  0
LINE
  5
57E
100
AcDbEntity
  8
0
100
AcDbLine
 62
2
  6
CONTINUOUS
 10
135.7378939746
 20
132.3430955103
 11
135.7378939746
 21
142.3707753948
  0
LINE
  5
57F
100
AcDbEntity
  8
010
100
AcDbLine
 62
2
  6
CONTINUOUS
 10
135.7520604871
 20
77.7016947071
 11
135.7520604871
 21
87.6028526019
  0
LINE
  5
580
100
AcDbEntity
  8
010
100
AcDbLine
 62
2
  6
CONTINUOUS
 10
135.7560609549
 20
186.0424388664
 11
135.7560609549
 21
178.0415031939
  0
LINE
  5
581
100
AcDbEntity
  8
0
100
AcDbLine
 62
2
  6
CONTINUOUS
 10
136.3011305775
 20
217.355207508
 11
136.3011305775
 21
207.7123298418
  0
LINE
  5
582
100
AcDbEntity
  8
05
100
AcDbLine
 62
7
  6
CONTINUOUS
 10
136.3011305775
 20
218.155207508
 11
136.3011305775
 21
227.655207483
  0
LINE
  5
583
100
AcDbEntity
  8
07
100
AcDbLine
 62
7
  6
CONTINUOUS
 10
136.3021248146
 20
185.5423803869
 11
136.3021248146
 21
178.0415031939
  0
LINE
  5
584
100
AcDbEntity
  8
0
100
AcDbLine
 62
2
  6
CONTINUOUS
 10
136.3021248146
 20
77.4517590346
 11
136.3021248146
 21
66.2344496262
  0
LINE
  5
585
100
AcDbEntity
  8
07
100
AcDbLine
 62
7
  6
CONTINUOUS
 10
136.3021248146
 20
78.2517590346
 11
136.3021248146
 21
87.0527882744
  0
LINE
  5
586
100
AcDbEntity
  8
0
100
AcDbLine
 62
2
  6
CONTINUOUS
 10
136.3021248146
 20
186.3423803869
 11
136.3021248146
 21
194.3869280793
  0
LINE
  5
587
100
AcDbEntity
  8
SCHRAFFIERT
100
AcDbLine
 62
2
  6
CONTINUOUS
 10
136.7511306625
 20
244.5303720636
 11
136.7511306625
 21
236.5303720636
  0
LINE
  5
588
100
AcDbEntity
  8
05
100
AcDbLine
 62
7
  6
CONTINUOUS
 10
137.3011305675
 20
228.155207478
 11
137.3011305675
 21
232.4919266239
  0
LINE
  5
589
100
AcDbEntity
  8
07
100
AcDbLine
 62
7
  6
CONTINUOUS
 10
137.3022417736
 20
175.5412107963
 11
137.3022417736
 21
154.3369417904
  0
LINE
  5
58A
100
AcDbEntity
  8
SCHRAFFIERT
100
AcDbLine
 62
2
  6
CONTINUOUS
 10
137.9511306625
 20
244.5303720636
 11
137.9511306625
 21
236.5303720636
  0
LINE
  5
58B
100
AcDbEntity
  8
SCHRAFFIERT
100
AcDbLine
 62
2
  6
CONTINUOUS
 10
138.9511306625
 20
244.5303720636
 11
138.9511306625
 21
236.5303720636
  0
LINE
  5
58C
100
AcDbEntity
  8
SCHRAFFIERT
100
AcDbLine
 62
2
  6
CONTINUOUS
 10
139.6511306625
 20
244.5303720636
 11
139.6511306625
 21
236.5303720636
  0
LINE
  5
58D
100
AcDbEntity
  8
05
100
AcDbLine
 62
7
  6
CONTINUOUS
 10
139.8011306625
 20
246.7303720636
 11
139.8011306625
 21
244.5303720636
  0
LINE
  5
58E
100
AcDbEntity
  8
05
100
AcDbLine
 62
7
  6
CONTINUOUS
 10
139.8011306625
 20
236.5303720636
 11
139.8011306625
 21
233.3303720636
  0
LINE
  5
58F
100
AcDbEntity
  8
SCHRAFFIERT
100
AcDbLine
 62
2
  6
CONTINUOUS
 10
140.1511306625
 20
244.1803720636
 11
140.1511306625
 21
236.8803720636
  0
LINE
  5
590
100
AcDbEntity
  8
05
100
AcDbLine
 62
7
  6
CONTINUOUS
 10
140.4011306625
 20
243.9303720636
 11
140.4011306625
 21
237.1303720636
  0
LINE
  5
591
100
AcDbEntity
  8
07
100
AcDbLine
 62
7
  6
CONTINUOUS
 10
132.7870460765
 20
134.69745016
 11
131.7695123186
 21
133.679916402
  0
LINE
  5
592
100
AcDbEntity
  8
SCHRAFFIERT
100
AcDbLine
 62
2
  6
CONTINUOUS
 10
131.7695123186
 20
133.4522370838
 11
133.0147253948
 21
134.69745016
  0
LINE
  5
593
100
AcDbEntity
  8
SCHRAFFIERT
100
AcDbLine
 62
2
  6
CONTINUOUS
 10
131.7695123186
 20
131.8430061735
 11
134.6239563051
 21
134.69745016
  0
LINE
  5
594
100
AcDbEntity
  8
SCHRAFFIERT
100
AcDbLine
 62
2
  6
CONTINUOUS
 10
131.7695123186
 20
130.2337752632
 11
134.9238669682
 21
133.3881299128
  0
LINE
  5
595
100
AcDbEntity
  8
SCHRAFFIERT
100
AcDbLine
 62
2
  6
CONTINUOUS
 10
131.7695123186
 20
128.6245443529
 11
135.196830355
 21
132.0518623893
  0
LINE
  5
596
100
AcDbEntity
  8
SCHRAFFIERT
100
AcDbLine
 62
2
  6
CONTINUOUS
 10
131.7695123186
 20
127.0153134426
 11
135.7378939746
 21
130.9836950986
  0
LINE
  5
597
100
AcDbEntity
  8
SCHRAFFIERT
100
AcDbLine
 62
2
  6
CONTINUOUS
 10
131.7695123186
 20
125.4060825322
 11
135.7378939746
 21
129.3744641883
  0
LINE
  5
598
100
AcDbEntity
  8
SCHRAFFIERT
100
AcDbLine
 62
2
  6
CONTINUOUS
 10
131.7695123186
 20
123.7968516219
 11
135.7378939746
 21
127.765233278
  0
LINE
  5
599
100
AcDbEntity
  8
SCHRAFFIERT
100
AcDbLine
 62
2
  6
CONTINUOUS
 10
131.7695123186
 20
122.1876207116
 11
135.7378939746
 21
126.1560023677
  0
LINE
  5
59A
100
AcDbEntity
  8
025
100
AcDbLine
 62
2
  6
CONTINUOUS
 10
62.5703220242
 20
164.7511742874
 11
56.0730638924
 21
162.921994876
  0
LINE
  5
59B
100
AcDbEntity
  8
025
100
AcDbLine
 62
2
  6
CONTINUOUS
 10
62.5703220242
 20
165.2467278737
 11
56.0730638924
 21
163.4175484624
  0
LINE
  5
59C
100
AcDbEntity
  8
025
100
AcDbLine
 62
2
  6
CONTINUOUS
 10
62.5703220242
 20
166.2653658012
 11
56.0730638924
 21
164.4361863898
  0
LINE
  5
59D
100
AcDbEntity
  8
025
100
AcDbLine
 62
2
  6
CONTINUOUS
 10
62.5703220242
 20
166.7609193875
 11
56.0730638924
 21
164.9317399761
  0
LINE
  5
59E
100
AcDbEntity
  8
025
100
AcDbLine
 62
2
  6
CONTINUOUS
 10
62.5703220242
 20
167.7795573149
 11
56.0730638924
 21
165.9503779036
  0
LINE
  5
59F
100
AcDbEntity
  8
025
100
AcDbLine
 62
2
  6
CONTINUOUS
 10
62.5703220242
 20
168.2751109012
 11
56.0730638924
 21
166.4459314899
  0
LINE
  5
5A0
100
AcDbEntity
  8
025
100
AcDbLine
 62
2
  6
CONTINUOUS
 10
62.5703220242
 20
169.2937488287
 11
56.0730638924
 21
167.4645694173
  0
LINE
  5
5A1
100
AcDbEntity
  8
025
100
AcDbLine
 62
2
  6
CONTINUOUS
 10
62.5703220242
 20
169.789302415
 11
56.0730638924
 21
167.9601230037
  0
LINE
  5
5A2
100
AcDbEntity
  8
025
100
AcDbLine
 62
2
  6
CONTINUOUS
 10
62.5703220242
 20
170.8079403424
 11
56.0730638924
 21
168.9787609311
  0
LINE
  5
5A3
100
AcDbEntity
  8
025
100
AcDbLine
 62
2
  6
CONTINUOUS
 10
62.5703220242
 20
171.3034939288
 11
57.8720344526
 21
169.9807804517
  0
LINE
  5
5A4
100
AcDbEntity
  8
025
100
AcDbLine
 62
2
  6
CONTINUOUS
 10
57.3707112304
 20
169.8396424366
 11
56.0730638924
 21
169.4743145174
  0
LINE
  5
5A5
100
AcDbEntity
  8
025
100
AcDbLine
 62
2
  6
CONTINUOUS
 10
62.5703220242
 20
172.3221318562
 11
56.0730638924
 21
170.4929524449
  0
LINE
  5
5A6
100
AcDbEntity
  8
025
100
AcDbLine
 62
2
  6
CONTINUOUS
 10
62.5703220242
 20
172.8176854425
 11
56.0730638924
 21
170.9885060312
  0
LINE
  5
5A7
100
AcDbEntity
  8
025
100
AcDbLine
 62
2
  6
CONTINUOUS
 10
62.5703220242
 20
173.83632337
 11
56.0730638924
 21
172.0071439586
  0
LINE
  5
5A8
100
AcDbEntity
  8
025
100
AcDbLine
 62
2
  6
CONTINUOUS
 10
62.5703220242
 20
174.3318769563
 11
56.0730638924
 21
172.5026975449
  0
LINE
  5
5A9
100
AcDbEntity
  8
025
100
AcDbLine
 62
2
  6
CONTINUOUS
 10
62.5703220242
 20
175.3505148837
 11
56.0730638924
 21
173.5213354724
  0
LINE
  5
5AA
100
AcDbEntity
  8
025
100
AcDbLine
 62
2
  6
CONTINUOUS
 10
62.5703220242
 20
175.84606847
 11
56.0730638924
 21
174.0168890587
  0
LINE
  5
5AB
100
AcDbEntity
  8
025
100
AcDbLine
 62
2
  6
CONTINUOUS
 10
58.1389717323
 20
180.5882409836
 11
57.5602752665
 21
180.5191387891
  0
LINE
  5
5AC
100
AcDbEntity
  8
025
100
AcDbLine
 62
2
  6
CONTINUOUS
 10
58.1389717323
 20
181.4141636275
 11
57.5602752665
 21
181.3450614329
  0
LINE
  5
5AD
100
AcDbEntity
  8
025
100
AcDbLine
 62
2
  6
CONTINUOUS
 10
62.2950144763
 20
180.1488706337
 11
61.75678822
 21
180.1036996992
  0
LINE
  5
5AE
100
AcDbEntity
  8
025
100
AcDbLine
 62
2
  6
CONTINUOUS
 10
118.6385740543
 20
175.5412107963
 11
119.2032524169
 21
175.5412107963
  0
LINE
  5
5AF
100
AcDbEntity
  8
025
100
AcDbLine
 62
2
  6
CONTINUOUS
 10
119.863369376
 20
175.5412107963
 11
124.3011306625
 21
175.5412107963
  0
LINE
  5
5B0
100
AcDbEntity
  8
07
100
AcDbLine
 62
7
  6
CONTINUOUS
 10
136.8021832941
 20
176.0412692758
 11
135.6020429432
 21
176.0412692758
  0
LINE
  5
5B1
100
AcDbEntity
  8
07
100
AcDbLine
 62
7
  6
CONTINUOUS
 10
124.3011306625
 20
176.0412692758
 11
118.8000780309
 21
176.0412692758
  0
LINE
  5
5B2
100
AcDbEntity
  8
07
100
AcDbLine
 62
7
  6
CONTINUOUS
 10
136.3021248146
 20
178.0415031939
 11
135.6020429432
 21
178.0415031939
  0
LINE
  5
5B3
100
AcDbEntity
  8
07
100
AcDbLine
 62
7
  6
CONTINUOUS
 10
124.3011306625
 20
178.0415031939
 11
119.3001365105
 21
178.0415031939
  0
LINE
  5
5B4
100
AcDbEntity
  8
025
100
AcDbLine
 62
2
  6
CONTINUOUS
 10
60.5991199808
 20
179.8294933814
 11
59.6583940895
 21
179.8294933814
  0
LINE
  5
5B5
100
AcDbEntity
  8
025
100
AcDbLine
 62
2
  6
CONTINUOUS
 10
58.7179435057
 20
180.5882409836
 11
58.1389717323
 21
180.5882409836
  0
LINE
  5
5B6
100
AcDbEntity
  8
025
100
AcDbLine
 62
2
  6
CONTINUOUS
 10
60.5991199808
 20
180.6554160253
 11
59.6583940895
 21
180.6554160253
  0
LINE
  5
5B7
100
AcDbEntity
  8
025
100
AcDbLine
 62
2
  6
CONTINUOUS
 10
58.7179435057
 20
181.4141636275
 11
58.1389717323
 21
181.4141636275
  0
LINE
  5
5B8
100
AcDbEntity
  8
0
100
AcDbLine
 62
2
  6
CONTINUOUS
 10
119.3001365105
 20
185.5423803869
 11
127.8011306625
 21
185.5423803869
  0
LINE
  5
5B9
100
AcDbEntity
  8
025
100
AcDbLine
 62
2
  6
CONTINUOUS
 10
119.3001365105
 20
185.5423803869
 11
125.5336631969
 21
185.5423803869
  0
LINE
  5
5BA
100
AcDbEntity
  8
07
100
AcDbLine
 62
7
  6
CONTINUOUS
 10
135.802066335
 20
186.0424388664
 11
119.80019499
 21
186.0424388664
  0
LINE
  5
5BB
100
AcDbEntity
  8
05
100
AcDbLine
 62
7
  6
CONTINUOUS
 10
62.2813039126
 20
214.5906764873
 11
61.3216929583
 21
215.14470813
  0
LINE
  5
5BC
100
AcDbEntity
  8
05
100
AcDbLine
 62
7
  6
CONTINUOUS
 10
65.3216929583
 20
231.5719274492
 11
65.6216929583
 21
231.2719274492
  0
LINE
  5
5BD
100
AcDbEntity
  8
SCHRAFFIERT
100
AcDbLine
 62
2
  6
CONTINUOUS
 10
132.1133196954
 20
120.9221971781
 11
135.7378939746
 21
124.5467714574
  0
LINE
  5
5BE
100
AcDbEntity
  8
07
100
AcDbLine
 62
7
  6
CONTINUOUS
 10
135.2291270956
 20
122.8940585676
 11
135.7378939746
 21
123.4028254466
  0
LINE
  5
5BF
100
AcDbEntity
  8
SCHRAFFIERT
100
AcDbLine
 62
2
  6
CONTINUOUS
 10
133.0488242245
 20
120.2484707969
 11
134.9238669682
 21
122.1235135407
  0
LINE
  5
5C0
100
AcDbEntity
  8
SCHRAFFIERT
100
AcDbLine
 62
2
  6
CONTINUOUS
 10
134.6580551348
 20
120.2484707969
 11
134.9238669682
 21
120.5142826304
  0
LINE
  5
5C1
100
AcDbEntity
  8
07
100
AcDbLine
 62
7
  6
CONTINUOUS
 10
134.9238669682
 20
120.5028542364
 11
134.6694835288
 21
120.2484707969
  0
LINE
  5
5C2
100
AcDbEntity
  8
025
100
AcDbLine
 62
2
  6
CONTINUOUS
 10
62.5703220242
 20
176.8647063975
 11
56.0730638924
 21
175.0355269861
  0
LINE
  5
5C3
100
AcDbEntity
  8
025
100
AcDbLine
 62
2
  6
CONTINUOUS
 10
62.5703220242
 20
177.3602599838
 11
56.0730638924
 21
175.5310805725
  0
LINE
  5
5C4
100
AcDbEntity
  8
025
100
AcDbLine
 62
2
  6
CONTINUOUS
 10
62.5703220242
 20
178.3788979112
 11
56.0730638924
 21
176.5497184999
  0
LINE
  5
5C5
100
AcDbEntity
  8
025
100
AcDbLine
 62
2
  6
CONTINUOUS
 10
62.5703220242
 20
178.8744514976
 11
56.0730638924
 21
177.0452720862
  0
LINE
  5
5C6
100
AcDbEntity
  8
025
100
AcDbLine
 62
2
  6
CONTINUOUS
 10
61.3355086381
 20
179.5454512095
 11
56.0730638924
 21
178.0639100137
  0
LINE
  5
5C7
100
AcDbEntity
  8
025
100
AcDbLine
 62
2
  6
CONTINUOUS
 10
62.5703220242
 20
180.3886430113
 11
61.6958137881
 21
180.1424418557
  0
LINE
  5
5C8
100
AcDbEntity
  8
025
100
AcDbLine
 62
2
  6
CONTINUOUS
 10
60.5842186069
 20
179.8294933814
 11
56.0730638924
 21
178.5594636
  0
LINE
  5
5C9
100
AcDbEntity
  8
025
100
AcDbLine
 62
2
  6
CONTINUOUS
 10
62.5703220242
 20
181.4072809388
 11
59.8996925645
 21
180.6554160253
  0
LINE
  5
5CA
100
AcDbEntity
  8
025
100
AcDbLine
 62
2
  6
CONTINUOUS
 10
59.1055239205
 20
180.4318329533
 11
56.0730638924
 21
179.5781015274
  0
LINE
  5
5CB
100
AcDbEntity
  8
025
100
AcDbLine
 62
2
  6
CONTINUOUS
 10
62.5703220242
 20
181.9028345251
 11
59.4085569799
 21
181.012699732
  0
LINE
  5
5CC
100
AcDbEntity
  8
025
100
AcDbLine
 62
2
  6
CONTINUOUS
 10
57.7255075731
 20
180.5388691929
 11
56.0730638924
 21
180.0736551137
  0
LINE
  5
5CD
100
AcDbEntity
  8
025
100
AcDbLine
 62
2
  6
CONTINUOUS
 10
62.5703220242
 20
182.9214724525
 11
57.4412256769
 21
181.4774729612
  0
LINE
  5
5CE
100
AcDbEntity
  8
025
100
AcDbLine
 62
2
  6
CONTINUOUS
 10
56.7794260044
 20
181.2911558547
 11
56.0730638924
 21
181.0922930412
  0
LINE
  5
5CF
100
AcDbEntity
  8
025
100
AcDbLine
 62
2
  6
CONTINUOUS
 10
62.5703220242
 20
183.4170260389
 11
57.0755886804
 21
181.8700884077
  0
LINE
  5
5D0
100
AcDbEntity
  8
025
100
AcDbLine
 62
2
  6
CONTINUOUS
 10
56.2179403132
 20
181.6286338274
 11
56.0730638924
 21
181.5878466275
  0
LINE
  5
5D1
100
AcDbEntity
  8
025
100
AcDbLine
 62
2
  6
CONTINUOUS
 10
62.5703220242
 20
184.4356639663
 11
56.1216792685
 21
182.6201712891
  0
LINE
  5
5D2
100
AcDbEntity
  8
025
100
AcDbLine
 62
2
  6
CONTINUOUS
 10
62.5703220242
 20
184.9312175526
 11
56.0730638924
 21
183.1020381413
  0
LINE
  5
5D3
100
AcDbEntity
  8
025
100
AcDbLine
 62
2
  6
CONTINUOUS
 10
62.5703220242
 20
185.9498554801
 11
56.0730638924
 21
184.1206760687
  0
LINE
  5
5D4
100
AcDbEntity
  8
025
100
AcDbLine
 62
2
  6
CONTINUOUS
 10
62.5703220242
 20
186.4454090664
 11
56.0730638924
 21
184.616229655
  0
LINE
  5
5D5
100
AcDbEntity
  8
025
100
AcDbLine
 62
2
  6
CONTINUOUS
 10
62.5703220242
 20
187.4640469938
 11
56.0730638924
 21
185.6348675825
  0
LINE
  5
5D6
100
AcDbEntity
  8
025
100
AcDbLine
 62
2
  6
CONTINUOUS
 10
62.5703220242
 20
187.9596005801
 11
56.0730638924
 21
186.1304211688
  0
LINE
  5
5D7
100
AcDbEntity
  8
025
100
AcDbLine
 62
2
  6
CONTINUOUS
 10
62.5703220242
 20
188.9782385076
 11
56.0730638924
 21
187.1490590962
  0
LINE
  5
5D8
100
AcDbEntity
  8
0
100
AcDbLine
 62
2
  6
CONTINUOUS
 10
122.8001365105
 20
193.9445925156
 11
132.8021248146
 21
193.9445925156
  0
LINE
  5
5D9
100
AcDbEntity
  8
025
100
AcDbLine
 62
2
  6
CONTINUOUS
 10
55.8530026536
 20
214.9304495673
 11
57.8789506885
 21
214.1274153535
  0
LINE
  5
5DA
100
AcDbEntity
  8
05
100
AcDbLine
 62
7
  6
CONTINUOUS
 10
63.5216929583
 20
219.4998152128
 11
63.3266929583
 21
219.6123985153
  0
LINE
  5
5DB
100
AcDbEntity
  8
07
100
AcDbLine
 62
7
  6
CONTINUOUS
 10
136.8021832941
 20
176.0412692758
 11
137.3022417736
 21
175.5412107963
  0
LINE
  5
5DC
100
AcDbEntity
  8
07
100
AcDbLine
 62
7
  6
CONTINUOUS
 10
136.3021248146
 20
185.5423803869
 11
135.802066335
 21
186.0424388664
  0
LINE
  5
5DD
100
AcDbEntity
  8
07
100
AcDbLine
 62
7
  6
CONTINUOUS
 10
124.050575107
 20
95.6537941223
 11
123.050575107
 21
94.6537941223
  0
LINE
  5
5DE
100
AcDbEntity
  8
07
100
AcDbLine
 62
7
  6
CONTINUOUS
 10
119.3001365105
 20
87.0527882744
 11
119.9002066859
 21
87.6528584498
  0
LINE
  5
5DF
100
AcDbEntity
  8
07
100
AcDbLine
 62
7
  6
CONTINUOUS
 10
132.5516862181
 20
90.653092368
 11
131.3011306625
 21
89.4025368124
  0
LINE
  5
5E0
100
AcDbEntity
  8
025
100
AcDbLine
 62
2
  6
CONTINUOUS
 10
62.5703220242
 20
189.4737920939
 11
56.0730638924
 21
187.6446126826
  0
LINE
  5
5E1
100
AcDbEntity
  8
025
100
AcDbLine
 62
2
  6
CONTINUOUS
 10
62.5703220242
 20
190.4924300213
 11
56.0730638924
 21
188.66325061
  0
LINE
  5
5E2
100
AcDbEntity
  8
025
100
AcDbLine
 62
2
  6
CONTINUOUS
 10
62.5703220242
 20
190.9879836077
 11
56.0730638924
 21
189.1588041963
  0
LINE
  5
5E3
100
AcDbEntity
  8
025
100
AcDbLine
 62
2
  6
CONTINUOUS
 10
62.5703220242
 20
192.0066215351
 11
56.0730638924
 21
190.1774421238
  0
LINE
  5
5E4
100
AcDbEntity
  8
025
100
AcDbLine
 62
2
  6
CONTINUOUS
 10
62.5703220242
 20
192.5021751214
 11
56.0730638924
 21
190.6729957101
  0
LINE
  5
5E5
100
AcDbEntity
  8
025
100
AcDbLine
 62
2
  6
CONTINUOUS
 10
62.5703220242
 20
193.5208130489
 11
56.0730638924
 21
191.6916336375
  0
LINE
  5
5E6
100
AcDbEntity
  8
025
100
AcDbLine
 62
2
  6
CONTINUOUS
 10
62.5703220242
 20
194.0163666352
 11
56.0730638924
 21
192.1871872238
  0
LINE
  5
5E7
100
AcDbEntity
  8
025
100
AcDbLine
 62
2
  6
CONTINUOUS
 10
62.5703220242
 20
195.0350045626
 11
56.0730638924
 21
193.2058251513
  0
LINE
  5
5E8
100
AcDbEntity
  8
025
100
AcDbLine
 62
2
  6
CONTINUOUS
 10
62.5703220242
 20
195.5305581489
 11
56.0730638924
 21
193.7013787376
  0
LINE
  5
5E9
100
AcDbEntity
  8
025
100
AcDbLine
 62
2
  6
CONTINUOUS
 10
62.5703220242
 20
196.5491960764
 11
56.0730638924
 21
194.720016665
  0
LINE
  5
5EA
100
AcDbEntity
  8
025
100
AcDbLine
 62
2
  6
CONTINUOUS
 10
62.5703220242
 20
197.0447496627
 11
56.0730638924
 21
195.2155702514
  0
LINE
  5
5EB
100
AcDbEntity
  8
025
100
AcDbLine
 62
2
  6
CONTINUOUS
 10
62.5703220242
 20
198.0633875901
 11
56.0730638924
 21
196.2342081788
  0
LINE
  5
5EC
100
AcDbEntity
  8
025
100
AcDbLine
 62
2
  6
CONTINUOUS
 10
62.5703220242
 20
198.5589411765
 11
56.0730638924
 21
196.7297617651
  0
LINE
  5
5ED
100
AcDbEntity
  8
025
100
AcDbLine
 62
2
  6
CONTINUOUS
 10
62.5703220242
 20
199.5775791039
 11
56.0730638924
 21
197.7483996926
  0
LINE
  5
5EE
100
AcDbEntity
  8
025
100
AcDbLine
 62
2
  6
CONTINUOUS
 10
62.5703220242
 20
200.0731326902
 11
56.0730638924
 21
198.2439532789
  0
LINE
  5
5EF
100
AcDbEntity
  8
025
100
AcDbLine
 62
2
  6
CONTINUOUS
 10
62.5703220242
 20
201.0917706177
 11
56.0730638924
 21
199.2625912063
  0
LINE
  5
5F0
100
AcDbEntity
  8
025
100
AcDbLine
 62
2
  6
CONTINUOUS
 10
62.5703220242
 20
201.587324204
 11
56.0730638924
 21
199.7581447926
  0
LINE
  5
5F1
100
AcDbEntity
  8
05
100
AcDbLine
 62
7
  6
CONTINUOUS
 10
63.0716929583
 20
205.634345159
 11
55.5716929583
 21
205.634345159
  0
LINE
  5
5F2
100
AcDbEntity
  8
0
100
AcDbLine
 62
2
  6
CONTINUOUS
 10
122.8011307475
 20
208.5123298418
 11
132.8011305775
 21
208.5123298418
  0
LINE
  5
5F3
100
AcDbEntity
  8
025
100
AcDbLine
 62
2
  6
CONTINUOUS
 10
60.6733615527
 20
214.7558769572
 11
64.0062687924
 21
214.4134530893
  0
LINE
  5
5F4
100
AcDbEntity
  8
07
100
AcDbLine
 62
7
  6
CONTINUOUS
 10
136.3021248146
 20
78.2517590346
 11
135.7020546391
 21
77.6516888592
  0
LINE
  5
5F5
100
AcDbEntity
  8
025
100
AcDbLine
 62
2
  6
CONTINUOUS
 10
62.5703220242
 20
202.6059621314
 11
56.0730638924
 21
200.7767827201
  0
LINE
  5
5F6
100
AcDbEntity
  8
025
100
AcDbLine
 62
2
  6
CONTINUOUS
 10
62.5703220242
 20
203.1015157177
 11
56.0730638924
 21
201.2723363064
  0
LINE
  5
5F7
100
AcDbEntity
  8
025
100
AcDbLine
 62
2
  6
CONTINUOUS
 10
62.5703220242
 20
204.1201536452
 11
56.0730638924
 21
202.2909742338
  0
LINE
  5
5F8
100
AcDbEntity
  8
025
100
AcDbLine
 62
2
  6
CONTINUOUS
 10
62.5703220242
 20
204.6157072315
 11
56.0730638924
 21
202.7865278202
  0
LINE
  5
5F9
100
AcDbEntity
  8
025
100
AcDbLine
 62
2
  6
CONTINUOUS
 10
62.5703220242
 20
205.634345159
 11
56.0730638924
 21
203.8051657476
  0
LINE
  5
5FA
100
AcDbEntity
  8
025
100
AcDbLine
 62
2
  6
CONTINUOUS
 10
60.8101122009
 20
205.634345159
 11
56.0730638924
 21
204.3007193339
  0
LINE
  5
5FB
100
AcDbEntity
  8
025
100
AcDbLine
 62
2
  6
CONTINUOUS
 10
57.1919031196
 20
205.634345159
 11
56.0730638924
 21
205.3193572614
  0
LINE
  5
5FC
100
AcDbEntity
  8
025
100
AcDbLine
 62
2
  6
CONTINUOUS
 10
57.8789506885
 20
214.1274153535
 11
60.6733615527
 21
214.7558769572
  0
LINE
  5
5FD
100
AcDbEntity
  8
025
100
AcDbLine
 62
2
  6
CONTINUOUS
 10
54.6170823951
 20
214.7957384956
 11
55.8530026536
 21
214.9304495673
  0
LINE
  5
5FE
100
AcDbEntity
  8
05
100
AcDbLine
 62
7
  6
CONTINUOUS
 10
57.3216929583
 20
215.14470813
 11
61.3216929583
 21
215.14470813
  0
LINE
  5
5FF
100
AcDbEntity
  8
05
100
AcDbLine
 62
7
  6
CONTINUOUS
 10
57.3216929583
 20
216.634345159
 11
61.3216929583
 21
216.634345159
  0
LINE
  5
600
100
AcDbEntity
  8
05
100
AcDbLine
 62
7
  6
CONTINUOUS
 10
120.1671561513
 20
217.655207508
 11
135.4351051737
 21
217.655207508
  0
LINE
  5
601
100
AcDbEntity
  8
05
100
AcDbLine
 62
7
  6
CONTINUOUS
 10
55.3216929583
 20
217.884345159
 11
63.3216929583
 21
217.884345159
  0
LINE
  5
602
100
AcDbEntity
  8
025
100
AcDbLine
 62
2
  6
CONTINUOUS
 10
119.3011307475
 20
218.155207508
 11
136.3011305775
 21
218.155207508
  0
LINE
  5
603
100
AcDbEntity
  8
025
100
AcDbLine
 62
2
  6
CONTINUOUS
 10
55.2014339023
 20
219.4438788022
 11
63.4532890307
 21
219.4438788022
  0
LINE
  5
604
100
AcDbEntity
  8
05
100
AcDbLine
 62
7
  6
CONTINUOUS
 10
55.3166929583
 20
219.6123985153
 11
63.3266929583
 21
219.6123985153
  0
LINE
  5
605
100
AcDbEntity
  8
05
100
AcDbLine
 62
7
  6
CONTINUOUS
 10
55.0466929583
 20
219.8823985153
 11
63.5966929583
 21
219.8823985153
  0
LINE
  5
606
100
AcDbEntity
  8
05
100
AcDbLine
 62
7
  6
CONTINUOUS
 10
55.0466929583
 20
221.734345159
 11
63.5966929583
 21
221.734345159
  0
LINE
  5
607
100
AcDbEntity
  8
05
100
AcDbLine
 62
7
  6
CONTINUOUS
 10
54.5716929583
 20
223.134345159
 11
64.0716929583
 21
223.134345159
  0
LINE
  5
608
100
AcDbEntity
  8
0
100
AcDbLine
 62
2
  6
CONTINUOUS
 10
64.8200486029
 20
223.134345159
 11
79.9329765863
 21
223.134345159
  0
LINE
  5
609
100
AcDbEntity
  8
05
100
AcDbLine
 62
7
  6
CONTINUOUS
 10
119.3011307475
 20
218.155207508
 11
120.1671561513
 21
217.655207508
  0
LINE
  5
60A
100
AcDbEntity
  8
05
100
AcDbLine
 62
7
  6
CONTINUOUS
 10
115.8011306625
 20
236.5303720636
 11
115.2011306625
 21
237.1303720636
  0
LINE
  5
60B
100
AcDbEntity
  8
05
100
AcDbLine
 62
7
  6
CONTINUOUS
 10
54.5716930058
 20
224.3843451465
 11
58.2624165487
 21
224.3843451465
  0
LINE
  5
60C
100
AcDbEntity
  8
05
100
AcDbLine
 62
7
  6
CONTINUOUS
 10
60.380969368
 20
224.3843451465
 11
64.0716929108
 21
224.3843451465
  0
LINE
  5
60D
100
AcDbEntity
  8
05
100
AcDbLine
 62
7
  6
CONTINUOUS
 10
119.3011307475
 20
225.155207508
 11
136.3011305775
 21
225.155207508
  0
LINE
  5
60E
100
AcDbEntity
  8
05
100
AcDbLine
 62
7
  6
CONTINUOUS
 10
64.9216929583
 20
225.5719274492
 11
53.7216929583
 21
225.5719274492
  0
LINE
  5
60F
100
AcDbEntity
  8
05
100
AcDbLine
 62
7
  6
CONTINUOUS
 10
65.3216929583
 20
227.5719274492
 11
53.3216929583
 21
227.5719274492
  0
LINE
  5
610
100
AcDbEntity
  8
05
100
AcDbLine
 62
7
  6
CONTINUOUS
 10
118.8011307525
 20
227.655207483
 11
136.8011305725
 21
227.655207483
  0
LINE
  5
611
100
AcDbEntity
  8
05
100
AcDbLine
 62
7
  6
CONTINUOUS
 10
118.3011307575
 20
230.155207458
 11
125.6825778432
 21
230.155207458
  0
LINE
  5
612
100
AcDbEntity
  8
05
100
AcDbLine
 62
7
  6
CONTINUOUS
 10
129.9196834819
 20
230.155207458
 11
137.3011305675
 21
230.155207458
  0
LINE
  5
613
100
AcDbEntity
  8
05
100
AcDbLine
 62
7
  6
CONTINUOUS
 10
65.3216929583
 20
231.5719274492
 11
53.3216929583
 21
231.5719274492
  0
LINE
  5
614
100
AcDbEntity
  8
05
100
AcDbLine
 62
7
  6
CONTINUOUS
 10
139.0011306625
 20
232.5303720636
 11
116.6011306625
 21
232.5303720636
  0
LINE
  5
615
100
AcDbEntity
  8
05
100
AcDbLine
 62
7
  6
CONTINUOUS
 10
53.7216929583
 20
233.0719274492
 11
64.9216929583
 21
233.0719274492
  0
LINE
  5
616
100
AcDbEntity
  8
05
100
AcDbLine
 62
7
  6
CONTINUOUS
 10
55.1820929444
 20
233.5974487895
 11
63.4954078702
 21
233.5974487895
  0
LINE
  5
617
100
AcDbEntity
  8
035
100
AcDbLine
 62
7
  6
CONTINUOUS
 10
55.3841929583
 20
233.9340110746
 11
54.8393422832
 21
233.9340110746
  0
LINE
  5
618
100
AcDbEntity
  8
025
100
AcDbLine
 62
2
  6
CONTINUOUS
 10
61.2381731877
 20
236.4399481747
 11
124.9284854538
 21
253.4093178624
  0
LINE
  5
619
100
AcDbEntity
  8
05
100
AcDbLine
 62
7
  6
CONTINUOUS
 10
139.8011306625
 20
236.5303720636
 11
115.8011306625
 21
236.5303720636
  0
LINE
  5
61A
100
AcDbEntity
  8
05
100
AcDbLine
 62
7
  6
CONTINUOUS
 10
55.8841929583
 20
239.634345159
 11
62.7591929583
 21
239.634345159
  0
LINE
  5
61B
100
AcDbEntity
  8
05
100
AcDbLine
 62
7
  6
CONTINUOUS
 10
139.8011306625
 20
244.5303720636
 11
115.8011306625
 21
244.5303720636
  0
LINE
  5
61C
100
AcDbEntity
  8
05
100
AcDbLine
 62
7
  6
CONTINUOUS
 10
116.6011306625
 20
247.5303720636
 11
139.0011306625
 21
247.5303720636
  0
LINE
  5
61D
100
AcDbEntity
  8
05
100
AcDbLine
 62
7
  6
CONTINUOUS
 10
139.8011306625
 20
244.5303720636
 11
140.4011306625
 21
243.9303720636
  0
LINE
  5
61E
100
AcDbEntity
  8
0
100
AcDbLine
 62
7
  6
CONTINUOUS
 10
205.0
 20
5.0
 11
205.0
 21
292.0
  0
LINE
  5
61F
100
AcDbEntity
  8
0
100
AcDbLine
 62
7
  6
CONTINUOUS
 10
210.0
 20
0.0
 11
210.0
 21
297.0
  0
LINE
  5
620
100
AcDbEntity
  8
05
100
AcDbLine
 62
7
  6
CONTINUOUS
 10
119.5219306347
 20
248.581414744
 11
136.1485604863
 21
248.581414744
  0
LINE
  5
621
100
AcDbEntity
  8
035
100
AcDbLine
 62
7
  6
CONTINUOUS
 10
119.9261306625
 20
249.2545393144
 11
118.8364293122
 21
249.2545393144
  0
LINE
  5
622
100
AcDbEntity
  8
05
100
AcDbLine
 62
7
  6
CONTINUOUS
 10
120.9261306625
 20
260.655207483
 11
134.6761306625
 21
260.655207483
  0
LINE
  5
623
100
AcDbEntity
  8
0
100
AcDbLine
 62
7
  6
CONTINUOUS
 10
5.0
 20
292.0
 11
205.0
 21
292.0
  0
LINE
  5
624
100
AcDbEntity
  8
0
100
AcDbLine
 62
7
  6
CONTINUOUS
 10
0.0
 20
297.0
 11
210.0
 21
297.0
  0
ARC
  5
625
100
AcDbEntity
  8
05
100
AcDbCircle
 62
7
  6
CONTINUOUS
 10
78.7403039365
 20
145.4493521135
 40
23.8047619209
100
AcDbArc
 50
207.2196554593
 51
212.7803445407
  0
ARC
  5
626
100
AcDbEntity
  8
05
100
AcDbCircle
 62
7
  6
CONTINUOUS
 10
69.3791138538
 20
141.2022379328
 40
12.2961568378
100
AcDbArc
 50
202.1761779096
 51
209.9632973231
  0
ARC
  5
627
100
AcDbEntity
  8
05
100
AcDbCircle
 62
7
  6
CONTINUOUS
 10
63.0716929583
 20
153.5609822002
 40
0.5
100
AcDbArc
 50
3.0
 51
90.0
  0
ARC
  5
628
100
AcDbEntity
  8
05
100
AcDbCircle
 62
7
  6
CONTINUOUS
 10
55.5716929583
 20
153.5609822002
 40
0.5
100
AcDbArc
 50
90.0
 51
177.0
  0
ARC
  5
629
100
AcDbEntity
  8
05
100
AcDbCircle
 62
7
  6
CONTINUOUS
 10
63.3216929583
 20
141.4109822002
 40
0.4
100
AcDbArc
 50
0.0
 51
90.0
  0
ARC
  5
62A
100
AcDbEntity
  8
05
100
AcDbCircle
 62
7
  6
CONTINUOUS
 10
63.3216929583
 20
140.5419223079
 40
0.4
100
AcDbArc
 50
270.0
 51
360.0
  0
CIRCLE
  5
62B
100
AcDbEntity
  8
025
100
AcDbCircle
 62
2
  6
CONTINUOUS
 10
55.7442983339
 20
134.7418240115
 40
0.32
  0
HATCH
  5
62C
100
AcDbEntity
  8
025
100
AcDbHatch
 62
2
  6
CONTINUOUS
 10
0.0
 20
0.0
 30
0.0
210
0.0
220
0.0
230
1.0
  2

 70
1
 71
1
 91
1
 92
1
 93
1
 72
2
 10
55.7442983339
 20
134.7418240115
 40
0.32
 50
0.0
 51
360.0
 73
1
 97
1
330
62B
 75
0
 76
1
 98
1
 10
0.0
 20
0.0
  0
CIRCLE
  5
62D
100
AcDbEntity
  8
025
100
AcDbCircle
 62
2
  6
CONTINUOUS
 10
60.7703120464
 20
131.1672198384
 40
0.32
  0
HATCH
  5
62E
100
AcDbEntity
  8
025
100
AcDbHatch
 62
2
  6
CONTINUOUS
 10
0.0
 20
0.0
 30
0.0
210
0.0
220
0.0
230
1.0
  2

 70
1
 71
1
 91
1
 92
1
 93
1
 72
2
 10
60.7703120464
 20
131.1672198384
 40
0.32
 50
0.0
 51
360.0
 73
1
 97
1
330
62D
 75
0
 76
1
 98
1
 10
0.0
 20
0.0
  0
CIRCLE
  5
62F
100
AcDbEntity
  8
025
100
AcDbCircle
 62
2
  6
CONTINUOUS
 10
61.7617477216
 20
122.1519896402
 40
0.32
  0
HATCH
  5
630
100
AcDbEntity
  8
025
100
AcDbHatch
 62
2
  6
CONTINUOUS
 10
0.0
 20
0.0
 30
0.0
210
0.0
220
0.0
230
1.0
  2

 70
1
 71
1
 91
1
 92
1
 93
1
 72
2
 10
61.7617477216
 20
122.1519896402
 40
0.32
 50
0.0
 51
360.0
 73
1
 97
1
330
62F
 75
0
 76
1
 98
1
 10
0.0
 20
0.0
  0
ARC
  5
631
100
AcDbEntity
  8
07
100
AcDbCircle
 62
7
  6
CONTINUOUS
 10
54.7202602098
 20
125.7088184575
 40
0.149122807
100
AcDbArc
 50
180.0
 51
270.0
  0
ARC
  5
632
100
AcDbEntity
  8
07
100
AcDbCircle
 62
7
  6
CONTINUOUS
 10
63.9231257069
 20
125.7088184575
 40
0.149122807
100
AcDbArc
 50
270.0
 51
360.0
  0
ARC
  5
633
100
AcDbEntity
  8
035
100
AcDbCircle
 62
7
  6
CONTINUOUS
 10
56.9610753549
 20
236.148526691
 40
1.75
100
AcDbArc
 50
154.2998195036
 51
205.7001804964
  0
ARC
  5
634
100
AcDbEntity
  8
05
100
AcDbCircle
 62
7
  6
CONTINUOUS
 10
63.0716929583
 20
206.134345159
 40
0.5
100
AcDbArc
 50
270.0
 51
357.0
  0
ARC
  5
635
100
AcDbEntity
  8
05
100
AcDbCircle
 62
7
  6
CONTINUOUS
 10
55.5716929583
 20
206.134345159
 40
0.5
100
AcDbArc
 50
183.0
 51
270.0
  0
ARC
  5
636
100
AcDbEntity
  8
05
100
AcDbCircle
 62
7
  6
CONTINUOUS
 10
55.8841929583
 20
239.134345159
 40
0.5
100
AcDbArc
 50
90.0
 51
180.0
  0
ARC
  5
637
100
AcDbEntity
  8
05
100
AcDbCircle
 62
7
  6
CONTINUOUS
 10
62.7591929583
 20
239.134345159
 40
0.5
100
AcDbArc
 50
0.0
 51
90.0
  0
ARC
  5
638
100
AcDbEntity
  8
05
100
AcDbCircle
 62
7
  6
CONTINUOUS
 10
55.1820922323
 20
233.1327952648
 40
0.4646535246
100
AcDbArc
 50
89.9999121864
 51
187.527158898
  0
ARC
  5
639
100
AcDbEntity
  8
05
100
AcDbCircle
 62
7
  6
CONTINUOUS
 10
63.4954087673
 20
233.1327952648
 40
0.4646535246
100
AcDbArc
 50
352.472841102
 51
90.0001106134
  0
ARC
  5
63A
100
AcDbEntity
  8
05
100
AcDbCircle
 62
7
  6
CONTINUOUS
 10
55.3216929583
 20
218.284345159
 40
0.4
100
AcDbArc
 50
180.0
 51
270.0
  0
ARC
  5
63B
100
AcDbEntity
  8
05
100
AcDbCircle
 62
7
  6
CONTINUOUS
 10
55.3216929583
 20
219.1534050513
 40
0.4
100
AcDbArc
 50
120.0
 51
180.0
  0
ARC
  5
63C
100
AcDbEntity
  8
05
100
AcDbCircle
 62
7
  6
CONTINUOUS
 10
53.7216929583
 20
225.9719274492
 40
0.4
100
AcDbArc
 50
180.0
 51
270.0
  0
ARC
  5
63D
100
AcDbEntity
  8
05
100
AcDbCircle
 62
7
  6
CONTINUOUS
 10
53.7216929583
 20
232.6719274492
 40
0.4
100
AcDbArc
 50
90.0
 51
180.0
  0
ARC
  5
63E
100
AcDbEntity
  8
05
100
AcDbCircle
 62
7
  6
CONTINUOUS
 10
63.3216929583
 20
218.284345159
 40
0.4
100
AcDbArc
 50
270.0
 51
360.0
  0
ARC
  5
63F
100
AcDbEntity
  8
05
100
AcDbCircle
 62
7
  6
CONTINUOUS
 10
63.3216929583
 20
219.1534050513
 40
0.4
100
AcDbArc
 50
0.0
 51
60.0
  0
ARC
  5
640
100
AcDbEntity
  8
05
100
AcDbCircle
 62
7
  6
CONTINUOUS
 10
64.9216929583
 20
225.9719274492
 40
0.4
100
AcDbArc
 50
270.0
 51
360.0
  0
ARC
  5
641
100
AcDbEntity
  8
05
100
AcDbCircle
 62
7
  6
CONTINUOUS
 10
64.9216929583
 20
232.6719274492
 40
0.4
100
AcDbArc
 50
0.0
 51
90.0
  0
ARC
  5
642
100
AcDbEntity
  8
05
100
AcDbCircle
 62
7
  6
CONTINUOUS
 10
56.3348260204
 20
239.1889734724
 40
0.3843620117
100
AcDbArc
 50
78.7878878277
 51
184.5717961582
  0
CIRCLE
  5
643
100
AcDbEntity
  8
025
100
AcDbCircle
 62
2
  6
CONTINUOUS
 10
61.2381731877
 20
236.4399481747
 40
0.32
  0
HATCH
  5
644
100
AcDbEntity
  8
025
100
AcDbHatch
 62
2
  6
CONTINUOUS
 10
0.0
 20
0.0
 30
0.0
210
0.0
220
0.0
230
1.0
  2

 70
1
 71
1
 91
1
 92
1
 93
1
 72
2
 10
61.2381731877
 20
236.4399481747
 40
0.32
 50
0.0
 51
360.0
 73
1
 97
1
330
643
 75
0
 76
1
 98
1
 10
0.0
 20
0.0
  0
ARC
  5
645
100
AcDbEntity
  8
05
100
AcDbCircle
 62
7
  6
CONTINUOUS
 10
54.8216930033
 20
223.3843451565
 40
0.2499999975
100
AcDbArc
 50
180.0
 51
270.0
  0
ARC
  5
646
100
AcDbEntity
  8
05
100
AcDbCircle
 62
7
  6
CONTINUOUS
 10
63.8216929133
 20
223.3843451565
 40
0.2499999975
100
AcDbArc
 50
270.0
 51
360.0
  0
ARC
  5
647
100
AcDbEntity
  8
05
100
AcDbCircle
 62
7
  6
CONTINUOUS
 10
147.9159724535
 20
185.3237807409
 40
24.5923136756
100
AcDbArc
 50
196.2083633875
 51
209.9632973231
  0
ARC
  5
648
100
AcDbEntity
  8
07
100
AcDbCircle
 62
7
  6
CONTINUOUS
 10
118.5982651654
 20
154.3369417904
 40
0.298245614
100
AcDbArc
 50
180.0
 51
270.0
  0
ARC
  5
649
100
AcDbEntity
  8
07
100
AcDbCircle
 62
7
  6
CONTINUOUS
 10
137.0039961596
 20
154.3369417904
 40
0.298245614
100
AcDbArc
 50
270.0
 51
360.0
  0
ARC
  5
64A
100
AcDbEntity
  8
05
100
AcDbCircle
 62
7
  6
CONTINUOUS
 10
166.6383526188
 20
193.8180091023
 40
47.6095238418
100
AcDbArc
 50
207.2196554593
 51
212.7803445407
  0
ARC
  5
64B
100
AcDbEntity
  8
035
100
AcDbCircle
 62
7
  6
CONTINUOUS
 10
123.0798954556
 20
253.6835705471
 40
3.5
100
AcDbArc
 50
154.2998195036
 51
205.7001804964
  0
ARC
  5
64C
100
AcDbEntity
  8
05
100
AcDbCircle
 62
7
  6
CONTINUOUS
 10
120.9261306625
 20
259.655207483
 40
1.0
100
AcDbArc
 50
90.0
 51
180.0
  0
ARC
  5
64D
100
AcDbEntity
  8
05
100
AcDbCircle
 62
7
  6
CONTINUOUS
 10
134.6761306625
 20
259.655207483
 40
1.0
100
AcDbArc
 50
0.0
 51
90.0
  0
ARC
  5
64E
100
AcDbEntity
  8
05
100
AcDbCircle
 62
7
  6
CONTINUOUS
 10
119.5219292104
 20
247.6521076948
 40
0.9293070492
100
AcDbArc
 50
89.9999121864
 51
187.527158898
  0
ARC
  5
64F
100
AcDbEntity
  8
05
100
AcDbCircle
 62
7
  6
CONTINUOUS
 10
136.1485622804
 20
247.6521076948
 40
0.9293070492
100
AcDbArc
 50
352.472841102
 51
90.0001106134
  0
ARC
  5
650
100
AcDbEntity
  8
05
100
AcDbCircle
 62
7
  6
CONTINUOUS
 10
116.6011306625
 20
233.3303720636
 40
0.8
100
AcDbArc
 50
180.0
 51
270.0
  0
ARC
  5
651
100
AcDbEntity
  8
05
100
AcDbCircle
 62
7
  6
CONTINUOUS
 10
139.0011306625
 20
233.3303720636
 40
0.8
100
AcDbArc
 50
270.0
 51
360.0
  0
ARC
  5
652
100
AcDbEntity
  8
05
100
AcDbCircle
 62
7
  6
CONTINUOUS
 10
116.6011306625
 20
246.7303720636
 40
0.8
100
AcDbArc
 50
90.0
 51
180.0
  0
ARC
  5
653
100
AcDbEntity
  8
05
100
AcDbCircle
 62
7
  6
CONTINUOUS
 10
139.0011306625
 20
246.7303720636
 40
0.8
100
AcDbArc
 50
0.0
 51
90.0
  0
ARC
  5
654
100
AcDbEntity
  8
05
100
AcDbCircle
 62
7
  6
CONTINUOUS
 10
121.8273967867
 20
259.7644641098
 40
0.7687240234
100
AcDbArc
 50
78.7878878277
 51
184.5717961582
  0
ARC
  5
655
100
AcDbEntity
  8
05
100
AcDbCircle
 62
7
  6
CONTINUOUS
 10
118.8011307525
 20
228.155207478
 40
0.499999995
100
AcDbArc
 50
180.0
 51
270.0
  0
ARC
  5
656
100
AcDbEntity
  8
05
100
AcDbCircle
 62
7
  6
CONTINUOUS
 10
136.8011305725
 20
228.155207478
 40
0.499999995
100
AcDbArc
 50
270.0
 51
360.0
  0
ENDSEC
  0
SECTION
  2
OBJECTS
  0
DICTIONARY
  5
C
100
AcDbDictionary
280
0
281
1
  3
ACAD_GROUP
350
D
  3
ACAD_MLINESTYLE
350
17
  3
ACAD_LAYOUT
350
1A
  3
ACAD_PLOTSETTINGS
350
19
  3
ACAD_PLOTSTYLENAME
350
E
  3
ACAD_TABLESTYLE
350
       657
  0
DICTIONARY
  5
D
102
{ACAD_REACTORS
330
C
102
}
100
AcDbDictionary
280
0
281
1
  0
ACDBDICTIONARYWDFLT
  5
E
102
{ACAD_REACTORS
330
C
102
}
100
AcDbDictionary
281
1
  3
Normal
350
F
100
AcDbDictionaryWithDefault
340
F
  0
DICTIONARY
  5
17
102
{ACAD_REACTORS
330
C
102
}
100
AcDbDictionary
280
0
281
1
  3
Standard
350
18
  0
DICTIONARY
  5
657
330
C
100
AcDbDictionary
281
1
  3
Standard
350
       65A
  3
Standard1
350
       65B
  0
DICTIONARY
  5
19
102
{ACAD_REACTORS
330
C
102
}
100
AcDbDictionary
281
1
  0
DICTIONARY
  5
1A
102
{ACAD_REACTORS
330
C
102
}
100
AcDbDictionary
281
1
  3
Model
350
658
  3
Layout1
350
659
  0
ACDBPLACEHOLDER
  5
F
102
{ACAD_REACTORS
330
E
102
}
  0
MLINESTYLE
  5
18
102
{ACAD_REACTORS
330
17
102
}
100
AcDbMlineStyle
  2
STANDARD
 70
0
  3

 62
256
 51
90.0
 52
90.0
 71
2
 49
0.5
 62
256
  6
BYLAYER
 49
-0.5
 62
256
  6
BYLAYER
  0
LAYOUT
  5
658
102
{ACAD_REACTORS
330
1A
102
}
100
AcDbPlotSettings
  1

  2
none_device
  4

  6

 40
0.0
 41
0.0
 42
0.0
 43
0.0
 44
210.0
 45
297.0
 46
0.0
 47
0.0
 48
0.0
 49
0.0
140
0.0
141
0.0
142
1.0
143
1.0
 70
1024
 72
1
 73
0
 74
0
  7

 75
0
147
1.0
148
0.0
149
0.0
100
AcDbLayout
  1
Model
 70
0
 71
0
 10
0.0
 20
0.0
 11
210.0
 21
297.0
 12
0.0
 22
0.0
 32
0.0
 14
0.0
 24
0.0
 34
0.0
 15
0.0
 25
0.0
 35
0.0
146
0.0
 13
0.0
 23
0.0
 33
0.0
 16
1.0
 26
0.0
 36
0.0
 17
0.0
 27
1.0
 37
0.0
 76
0
330
20C
345
0
346
0
  0
LAYOUT
  5
659
102
{ACAD_REACTORS
330
1A
102
}
100
AcDbPlotSettings
  1

  2
none_device
  4

  6

 40
0.0
 41
0.0
 42
0.0
 43
0.0
 44
210.0
 45
297.0
 46
0.0
 47
0.0
 48
0.0
 49
0.0
140
0.0
141
0.0
142
1.0
143
1.0
 70
0
 72
1
 73
0
 74
0
  7

 75
0
147
1.0
148
0.0
149
0.0
100
AcDbLayout
  1
Layout1
 70
0
 71
1
 10
0.0
 20
0.0
 11
210.0
 21
297.0
 12
0.0
 22
0.0
 32
0.0
 14
0.0
 24
0.0
 34
0.0
 15
0.0
 25
0.0
 35
0.0
146
0.0
 13
0.0
 23
0.0
 33
0.0
 16
1.0
 26
0.0
 36
0.0
 17
0.0
 27
1.0
 37
0.0
 76
0
330
20D
345
0
346
0
  0
TABLESTYLE
  5
65A
102
{ACAD_REACTORS
330
657
330
2B0
102
}
330
657
100
AcDbTableStyle
  3
Standard
 70
0
 71
0
 40
0.06
 41
0.06
280
1
281
1
  7
Standard
140
0.18
170
1
 62
0
 63
7
283
0
  7
Standard
140
0.18
170
1
 62
0
 63
7
283
0
  7
Standard
140
0.18
170
1
 62
0
 63
7
283
0
  0
TABLESTYLE
  5
65B
102
{ACAD_REACTORS
330
657
102
}
330
657
100
AcDbTableStyle
  3
Standard1
 70
1
 71
0
 40
0.06
 41
0.06
280
1
281
1
  7
Standard
140
0.18
170
1
 62
0
 63
7
283
0
  7
Standard
140
0.18
170
1
 62
0
 63
7
283
0
  7
Standard
140
0.18
170
1
 62
0
 63
7
283
0
  0
ENDSEC
  0
EOF
